Oops, an error
Loading. Please wait.

Doctors And Dealers solo tab

version 1
version 1

Solo

Whole song

543 views 1 this week
3 commentsread comments
1 2 3 4 5
2 more votes to show rating
add to favorites
×
Save as Personal and add changes to this tab that will be seen only by you. Learn more ›
×
You can save this tab as Personal to edit and correct it or add notes. All changes will be seen only by you. Learn more »
launch autoscroll
font size
0
reset
how to read this tab
guitar tuner
edit
Autoscroll
slow
fast
+/-
esc
set tempo
stop
Difficulty
Artist: Dirty Pretty Things
Song: Doctors and Dealers
Album: Waterloo To Anywhere
Year: 2006

was listening to the song and i turned into a copycat

Intro:

p= pull off

e:-5-6-7-6--5-6p5--------------3----------------------------|
B:-----------------6-3----5-6-------------------------------|
G:----------------------------------------------------------|
D:----------------------------------------------------------|
A:----------------------------------------------------------|
E:----------------------------------------------------------|


that's it, repeat

            
            
Suggest correction
Creating personal tab
Creating personal tab
You can edit any tab online and save it as your Personal.

You can edit, replace or remove any tab part or add personal notes – all changes will be seen only by you.

Personal tabs can be accessed anytime from any device, even offline.
Learn more »
Give kudos to tab author, rate the tab!
1 2 3 4 5
comments
print report bad tab
3 comments total.
0 reply
*HannahLove* 62 Aug 19, 2006 09:14 AM

wrong wrong wrong

0 reply
*HannahLove* 62 Aug 19, 2006 09:17 AM

Ok, well only a tiny bit! ;)

e:-5-6-8-6--5-6-5--------------3----------------------------|
B:-----------------6-3----5-6-------------------------------|
G:----------------------------------------------------------|
D:----------------------------------------------------------|
A:----------------------------------------------------------|
E:----------------------------------------------------------|

0 reply
Pitoudoherty 10 Mar 19, 2009 09:32 AM

Fucking Wrong

guest
Wanna post a correction for this tab? Suggest correction