Oops, an error
Loading. Please wait.

Doctors And Dealers tab

version 3
version 3

Whole song

3,479 views 1 this week
1 commentread comment
1 2 3 4 5
1 last vote to show rating
add to favorites
×
Save as Personal and add changes to this tab that will be seen only by you. Learn more ›
×
You can save this tab as Personal to edit and correct it or add notes. All changes will be seen only by you. Learn more »
launch autoscroll
font size
0
reset
how to read this tab
guitar tuner
edit
Autoscroll
slow
fast
+/-
esc
set tempo
stop
Author
-------------------------------------------------------------------------------
                             Doctors and Dealers - Dirty Pretty Things
-------------------------------------------------------------------------------
Tabbed by:Paulix
Email:paulbaur@gmx.at

Tuning:Standard

I tabbed this song because the other tabs are not correct. It seems like those guys who 
it don't know that it's typical for Dirty Pretty Things
to change a major-chord into a minor-chord during play what's totally out of the 
rule-range".


Intro:

e|-5-----------7-8---7---5-7/--10---8-/--10----------------------------------|
B|-5-----------------8---------10---8-/--10--12--11-11-11-11-11-11-11-11-----|
G|-5-let-ring--------7---------11---9-/--11--12--12-12-12-12-12-12-12-12-----|
D|-x-----------------------------------------12--12-12-12-12-12-12-12-12-----|
A|-0---------------------------------------------10-10-10-10-10-10-10-10-----|
E|---------------------------------------------------------------------------|

e|---------------------------------------------------------------------------|
B|-10-10-10-10-10-10-10-10---------------------------------------------------|
G|-10-10-10-10-10-10-10-10--7-7-7-7-7-7-7-7-7-7-7-7-7-7-7-7------------------|
D|-10-10-10-10-10-10-10-10--8-8-8-8-8-8-8-8-8-8-8-8-8-8-8-8------------------|
A|-8--8--8--8--8--8--8--8---8-8-8-8-8-8-8-8-8-8-8-8-8-8-8-8------------------|
E|--------------------------6-6-6-6-6-6-6-6-6-6-6-6-6-6-6-6------------------|

Chorus Riff:

e|---------------------------------------------------------------------------|
B|-10-11-13-11-10h11p10------------------------------------------------------|
G|----------------------10---------------------------------------------------|
D|-------------------------12~~~~--------------------------------------------|
A|---------------------------------------------------------------------------|
E|---------------------------------------------------------------------------|

Outro Riff:

e|---------------------------------------------------------------------------|
B|----------10~~~~~-10-------------------------------------------------------|
G|----10-12------------12-10-------------------------------------------------|
D|-12------------------------12~~~~------------------------------------------|
A|---------------------------------------------------------------------------|
E|---------------------------------------------------------------------------|

Riff 2

e|-5-----------7-8---7----5--------7-8---7----5------5---------7----8----7---|
B|-5-----------------8----5--------------8----5---------5----------------8---|
G|-5-let-ring--------7----5--------------9----5------------5-----5-------7---|
D|-x----------------------x-------------------x-----------------------7------|
A|-0----------------------0-------------------0------------------------------|
E|---------------------------------------------------------------------------|

e|-7-----7---5-7/--10--10-10-10--10---8--10--8-------------------------------|
B|---8-----8-------10--10-10-10--10---8--10--8---12--12-12-12-12-12--12--12--|
G|-----7-----------11--11-11-11--11---9--11--9---12--12-12-12-12-12--12--12--|
D|-----------------------------------------------12--12-12-12-12-12--12--12--|
A|-----------------------------------------------10--10-10-10-10-10--10--10--|
E|---------------------------------------------------------------------------|
               The Part with the "(( & ))" isn't the exactly strum pattern, it's 
faster and with some muted notes but you have the chords, you can play just as you like)
e|---------------------------------------------------------------------------|
B|12-12-12-12-((-11-11-11-11-11-11-13-13-11-11--10-10-10-10-10-10-10-10-))---|
G|12-12-12-12-((-12-12-12-12-12-12-12-12-12-12--10-10-10-10-10-10-10-10-))---|
D|12-12-12-12-((-12-12-12-12-12-12-12-12-12-12--10-10-10-10-10-10-10-10-))---|
A|10-10-10-10-((-10-10-10-10-10-10-10-10-10-10--8--8--8--8--8--8--8--8--))---|
E|---------------------------------------------------------------------------|

e|---------------------------------------------------------------------------|
B|---------------------------------------------------------------------------|
G|-7-7-7-7-7-7-7-7-7-7-7-7-7-7-7-7-------------------------------------------|
D|-8-8-8-8-8-8-8-8-8-8-8-8-8-8-8-8-------------------------------------------|
A|-8-8-8-8-8-8-8-8-8-8-8-8-8-8-8-8-------------------------------------------|
E|-6-6-6-6-6-6-6-6-6-6-6-6-6-6-6-6-------------------------------------------|


Verse 1:
F                                 Dm
I don’t believe in anything they tell me’s set in stone
Bb                                  Gm
They say that were together but I’m sat here on my own
       F                         Dm
In the company of strangers this trigger happy scene
          Bb                                 Gm
Well if a heart do like a hind then there is nothing in-between


Bridge:
   Dm                  Gm
Oh no, no well I don’t mind
   Dm                  C
Oh no, no well I don’t mind


Chorus:
            F        A      Bb
Cause I can call someone to bring the fight on
                C
(the doctors and the dealers)
F       A       Bb
Get someone to shed some light on
                C
(miracle cure, soul stealers)
F         A           Bb
Crack pot quacks with cracked up egos
                C
(prescribing old placebos)
F      A             Bb                  C (A few Times)
Collecting junk that we dont need, no


Verse 2:
F                                         Dm
I see them now and then still spitting out those lies
Bb                                             Gm
Strange it doesn’t bother me i’ve got my own disguise
       F                                                     Dm
And there’s really not that much of me for Jesus left to save
   Bb                                 Gm
If savings only bartering my soul can be his pay


Bridge:
   Dm                  Gm
Oh no, no well I don’t mind
   Dm                  C
Oh no, no well I don’t mind


Chorus:
            F        A      Bb
Cause I can call someone to bring the fight on
                C
(the doctors and the dealers)
F       A      Bb
Get someone to shed some light on
                C
(miracle cure, soul stealers)
F         A           Bb
Crack pot quacks with cracked up egos
                C
(prescribing old placebos)
F      A             Bb                  C (A few Times)
Collecting junk that we dont need, no


Riff 2:

You got the ball i was lucky to get the chain

But now I have to watch the crowds half hazardly chasing down the drain


Chorus and Chorus Riff : 4 Times

F / A / Bb / C


Outro Riff: 10 times

F / D are played during this part

They come to you
They come to me
They come in drones
Oh one two three
They come to you
they come to me
They come in drones
Oh one two three
They come to you
they come to me
They come in drones
Oh one two three
They come to you
Oh they come to me
They come in drones
Oh one two three
They come to me

Ends on F

That's it, I hope it's faultless

| /  slide up
| \  slide down
| h  hammer-on
| p  pull-off
| ~  vibrato
| +  harmonic
| x  Mute note
===============================================================================

            
            
Suggest correction
Creating personal tab
Creating personal tab
You can edit any tab online and save it as your Personal.

You can edit, replace or remove any tab part or add personal notes – all changes will be seen only by you.

Personal tabs can be accessed anytime from any device, even offline.
Learn more »
Give kudos to tab author, rate the tab!
1 2 3 4 5
comments
print report bad tab
1 comment total.
0 reply
Paulix 50 Jun 26, 2007 01:09 PM

Damn it I've done a typing mistake in Riff 2: The 9 in the round brackets you see.


e|-5-----------7-8---7----5--------7-8---7----5------5---------7----8----7---|
B|-5-----------------8----5--------------8----5---------5----------------8---|
G|-5-let-ring--------7----5-------------(9)---5------------5-----5-------7---|
D|-x----------------------x-------------------x-----------------------7------|
A|-0----------------------0-------------------0------------------------------|
E|---------------------------------------------------------------------------|
instead of the (9) it should be a 7:you can see here

e|-5-----------7-8---7----5--------7-8---7----5------5---------7----8----7---|
B|-5-----------------8----5--------------8----5---------5----------------8---|
G|-5-let-ring--------7----5-------------(7)---5------------5-----5-------7---|
D|-x----------------------x-------------------x-----------------------7------|
A|-0----------------------0-------------------0------------------------------|
E|---------------------------------------------------------------------------|

guest
You may want to rate the tab now too:
select rating
Wanna post a correction for this tab? Suggest correction