Oops, an error
Loading. Please wait.

Truth Begins tab

3,815 views 1 this week
1 commentread comment
1 2 3 4 5
1 last vote to show rating
add to favorites
×
Save as Personal and add changes to this tab that will be seen only by you. Learn more ›
×
You can save this tab as Personal to edit and correct it or add notes. All changes will be seen only by you. Learn more »
launch autoscroll
font size
0
reset
how to read this tab
guitar tuner
edit
Autoscroll
slow
fast
+/-
esc
set tempo
stop
Author
Difficulty
    Dirty Pretty Things
       Truth Begins
Barat/Rossomando/Hammond/Powell

Guitar 1: Carl Barat (Carl) Lead Acoustic
Guitar 2: Anthony Rossomando (Stan) Lead Electric

Intro:

Carl:
*
e-6-6-6--6-6-6--6-6-6--6-6-6--6-6-6--6-6-6--6-6-6--6-6-6-|
B-6-6-6--6-6-6--6-6-6--6-6-6--6-6-6--6-6-6--6-6-6--6-6-6-|
G-7-7-7--7-7-7--7-7-7--7-7-7--7-7-7--7-7-7--7-7-7--7-7-7-|
D-8-8-8--8-8-8--6-6-6--6-6-6--6-6-6--6-6-6--6-6-6--6-6-6-|
A-8-8-8--8-8-8--8-8-8--8-8-8--9-9-9--9-9-9--9-9-9--9-9-9-|
E-6-6-6--6-6-6--6-6-6--6-6-6--6-6-6--6-6-6--6-6-6--6-6-6-|

e-6-6-6--6-6-6--6-6-6--6-6-6--6-6-6--6-6-6--6-6-6--6-6-6-|
B-6-6-6--6-6-6--6-6-6--6-6-6--6-6-6--6-6-6--6-6-6--6-6-6-|
G-7-7-7--7-7-7--7-7-7--7-7-7--7-7-7--7-7-7--7-7-7--7-7-7-|
D-8-8-8--8-8-8--6-6-6--6-6-6--6-6-6--6-6-6--6-6-6--6-6-6-|
A-8-8-8--8-8-8--8-8-8--8-8-8--9-9-9--9-9-9--9-9-9--9-9-9-|
E-6-6-6--6-6-6--6-6-6--6-6-6--6-6-6--6-6-6--6-6-6--6-6-6-|

Stan:

e-----------------------------10-----------------------------10-|
B-11------------10---------------11------------10---------------|
G---------------------------------------------------------------|
D---------------------------------------------------------------|
A---------------------------------------------------------------|
E---------------------------------------------------------------|
*
e-----------------------------10-|
B-11------------10---------------|
G--------------------------------|
D--------------------------------|
A--------------------------------|
E--------------------------------|

e-----------------------------10-|
B-11------------10---------------|
G--------------------------------|
D--------------------------------|
A--------------------------------|
E--------------------------------|

Verse 1:

Carl:
  This is where the truth...  tear drops glance the sallow...
e-6-6-6--6-6-6--6-6-6--6-6-6--6-6-6--6-6-6--6-6-6--6-6-6-|
B-6-6-6--6-6-6--6-6-6--6-6-6--6-6-6--6-6-6--6-6-6--6-6-6-|
G-7-7-7--7-7-7--7-7-7--7-7-7--7-7-7--7-7-7--7-7-7--7-7-7-|
D-8-8-8--8-8-8--8-8-8--8-8-8--6-6-6--6-6-6--6-6-6--6-6-6-|
A-8-8-8--8-8-8--8-8-8--8-8-8--9-9-9--9-9-9--9-9-9--9-9-9-|
E-6-6-6--6-6-6--6-6-6--6-6-6--6-6-6--6-6-6--6-6-6--6-6-6-|
  you lose your will and...   mine.
e-6-6-6--6-6-6--6-6-6--6-6-6--1-1-1--1-1-1--1-1-1--1-1-1-|
B-8-8-8--8-8-8--8-8-8--8-8-8--1-1-1--1-1-1--1-1-1--1-1-1-|
G-8-8-8--8-8-8--8-8-8--8-8-8--2-2-2--2-2-2--2-2-2--2-2-2-|
D-8-8-8--8-8-8--8-8-8--8-8-8--3-3-3--3-3-3--3-3-3--3-3-3-|
A-6-6-6--6-6-6--6-6-6--6-6-6--3-3-3--3-3-3--3-3-3--3-3-3-|
E-----------------------------1-1-1--1-1-1--1-1-1--1-1-1-|
  the westway walls so...     reflects the words we...
e-6-6-6--6-6-6--6-6-6--6-6-6--6-6-6--6-6-6--6-6-6--6-6-6-|
B-6-6-6--6-6-6--6-6-6--6-6-6--6-6-6--6-6-6--6-6-6--6-6-6-|
G-7-7-7--7-7-7--7-7-7--7-7-7--7-7-7--7-7-7--7-7-7--7-7-7-|
D-8-8-8--8-8-8--8-8-8--8-8-8--6-6-6--6-6-6--6-6-6--6-6-6-|
A-8-8-8--8-8-8--8-8-8--8-8-8--9-9-9--9-9-9--9-9-9--9-9-9-|
E-6-6-6--6-6-6--6-6-6--6-6-6--6-6-6--6-6-6--6-6-6--6-6-6-|
  by the bottles end  we...   time...
e-6-6-6--6-6-6--6-6-6--6-6-6--1-1-1--1---2-|
B-8-8-8--8-8-8--8-8-8--8-8-8--1-1-1--1---2-|
G-8-8-8--8-8-8--8-8-8--8-8-8--2-2-2--2---3-|
D-8-8-8--8-8-8--8-8-8--8-8-8--3-3-3--3---4-|
A-6-6-6--6-6-6--6-6-6--6-6-6--3-3-3--3---4-|
E-----------------------------1-1-1--1---2-|

Pre-Chorus:

Carl:
  what you wants...     me, who twist most...  see...      *
e-3-3-3---3-3-3-3-3-3---3-3-3---3-3-3-3-3-3--1-1-1-1-1-1-1-1----1-|
B-3-3-3---3-3-3-3-3-3---4-4-4---4-4-4-4-4-4--3-3-3-3-3-3-3-3----1-|
G-3-3-3---3-3-3-3-3-3---5-5-5---5-5-5-5-5-5--3-3-3-3-3-3-3-3----2-|
D-5-5-5---5-5-5-5-5-5---5-5-5---5-5-5-5-5-5--3-3-3-3-3-3-3-3----3-|
A-5-5-5---5-5-5-5-5-5---3-3-3---3-3-3-3-3-3--1-1-1-1-1-1-1-1----3-|
E-3-3-3---3-3-3-3-3-3-------------------------------------------1-|
whoah oh.
e-3--3--1-|
B-3--3--1-|
G-3--3--2-|
D-5--5--3-|
A-5--5--3-|
E-3--3--1-|

Stan:
*
e-------------------3--3--1-|
B-----6-------------3--3--1-|
G---7---7-----------3--3--2-|
D-8-------8-\-3-----5--5--3-|
A-------------------5--5--3-|
E-------------------3--3--1-|

Chorus:

Carl:
*so sow... kid..  clout...about... will...     tomorrow.
e-1-1-1---1-1-1---3-3-3---6--8--1-1-1---1-1-1--3--3-3-3--3-3-3--3-3-1-|
B-3-3-3---1-1-1---3-3-3---8-10--3-3-3---1-1-1--3--3-3-3--3-3-3--3-3-1-|
G-3-3-3---2-2-2---3-3-3---8-10--3-3-3---2-2-2--3--3-3-3--3-3-3--3-3-2-|
D-3-3-3---3-3-3---5-5-5---8-10--3-3-3---3-3-3--5--5-5-5--5-5-5--5-5-3-|
A-1-1-1---3-3-3---5-5-5---6--8--1-1-1---3-3-3--5--5-5-5--5-5-5--5-5-3-|
E---------1-1-1---3-3-3-----------------1-1-1--3--3-3-3--3-3-3--3-3-1-|
look... parapet...bums...forget... we... beg... borrow.
e-1-1-1---1-1-1---3-3-3---6--8--1-1-1---1-1-1--3--3-3-3--3-3-3--3-3-2-|
B-3-3-3---1-1-1---3-3-3---8-10--3-3-3---1-1-1--3--3-3-3--3-3-3--3-3-2-|
G-3-3-3---2-2-2---3-3-3---8-10--3-3-3---2-2-2--3--3-3-3--3-3-3--3-3-3-|
D-3-3-3---3-3-3---5-5-5---8-10--3-3-3---3-3-3--5--5-5-5--5-5-5--5-5-4-|
A-1-1-1---3-3-3---5-5-5---6--8--1-1-1---3-3-3--5--5-5-5--5-5-5--5-5-4-|
E---------1-1-1---3-3-3-----------------1-1-1--3--3-3-3--3-3-3--3-3-2-|

e-1-
B-1-
G-2-
D-3-
A-3-
E-1-

Stan:
*
e-6-------1-------3-------6--8--14------8-----10--10-10-10--10-10-10-|
B-6-------1-------3-------8-10--16-----10-----11--11-11-11--11-11-11-|
G-7-------2-------3-------8-10--16-----10-----12--12-12-12--12-12-12-|
D-8-------3-------5-------8-10--16-----10-----12--12-12-12--12-12-12-|
A-8-------3-------5-------6--8--14------8-----10--10-10-10--10-10-10-|
E-6-------1-------3--------------------------------------------------|

e-10--10---8--|
B-11--12--10--|
G-12--12--10--|
D-12--12--10--|
A-10--12---8--|
E-------------|

e-6-------1-------3-------6--8--14------8-----10--10-10-10--10-10-10-|
B-6-------1-------3-------8-10--16-----10-----11--11-11-11--11-11-11-|
G-7-------2-------3-------8-10--16-----10-----12--12-12-12--12-12-12-|
D-8-------3-------5-------8-10--16-----10-----12--12-12-12--12-12-12-|
A-8-------3-------5-------6--8--14------8-----10--10-10-10--10-10-10-|
E-6-------1-------3--------------------------------------------------|

e-10--10---9---8-|
B-11--12--11--10-|
G-12--12--11--10-|
D-12--12--11--10-|
A-10--12---9---8-|
E----------------|

Verse 2:

Carl:
well you said...              embolden me against...
e-6-6-6--6-6-6--6-6-6--6-6-6--6-6-6--6-6-6--6-6-6--6-6-6-|
B-6-6-6--6-6-6--6-6-6--6-6-6--6-6-6--6-6-6--6-6-6--6-6-6-|
G-7-7-7--7-7-7--7-7-7--7-7-7--7-7-7--7-7-7--7-7-7--7-7-7-|
D-8-8-8--8-8-8--8-8-8--8-8-8--6-6-6--6-6-6--6-6-6--6-6-6-|
A-8-8-8--8-8-8--8-8-8--8-8-8--9-9-9--9-9-9--9-9-9--9-9-9-|
E-6-6-6--6-6-6--6-6-6--6-6-6--6-6-6--6-6-6--6-6-6--6-6-6-|
  fear and doubt I...         be.
e-6-6-6--6-6-6--6-6-6--6-6-6--1-1-1--1-1-1--1-1-1--1-1-1-|
B-8-8-8--8-8-8--8-8-8--8-8-8--1-1-1--1-1-1--1-1-1--1-1-1-|
G-8-8-8--8-8-8--8-8-8--8-8-8--2-2-2--2-2-2--2-2-2--2-2-2-|
D-8-8-8--8-8-8--8-8-8--8-8-8--3-3-3--3-3-3--3-3-3--3-3-3-|
A-6-6-6--6-6-6--6-6-6--6-6-6--3-3-3--3-3-3--3-3-3--3-3-3-|
E-----------------------------1-1-1--1-1-1--1-1-1--1-1-1-|
  so now I'm strung...        and a hum-drum day...
e-6-6-6--6-6-6--6-6-6--6-6-6--6-6-6--6-6-6--6-6-6--6-6-6-|
B-6-6-6--6-6-6--6-6-6--6-6-6--6-6-6--6-6-6--6-6-6--6-6-6-|
G-7-7-7--7-7-7--7-7-7--7-7-7--7-7-7--7-7-7--7-7-7--7-7-7-|
D-8-8-8--8-8-8--8-8-8--8-8-8--6-6-6--6-6-6--6-6-6--6-6-6-|
A-8-8-8--8-8-8--8-8-8--8-8-8--9-9-9--9-9-9--9-9-9--9-9-9-|
E-6-6-6--6-6-6--6-6-6--6-6-6--6-6-6--6-6-6--6-6-6--6-6-6-|
 now theres a wreath...      heart.
e-6-6-6--6-6-6--6-6-6--6-6-6--1-1-1--1---2-|
B-8-8-8--8-8-8--8-8-8--8-8-8--1-1-1--1---2-|
G-8-8-8--8-8-8--8-8-8--8-8-8--2-2-2--2---3-|
D-8-8-8--8-8-8--8-8-8--8-8-8--3-3-3--3---4-|
A-6-6-6--6-6-6--6-6-6--6-6-6--3-3-3--3---4-|
E-----------------------------1-1-1--1---2-|

Pre-Chorus:

Carl:
  what you wants...     forget you...        and leave...  *
e-3-3-3---3-3-3-3-3-3---3-3-3---3-3-3-3-3-3--1-1-1-1-1-1-1-1----1-|
B-3-3-3---3-3-3-3-3-3---4-4-4---4-4-4-4-4-4--3-3-3-3-3-3-3-3----1-|
G-3-3-3---3-3-3-3-3-3---5-5-5---5-5-5-5-5-5--3-3-3-3-3-3-3-3----2-|
D-5-5-5---5-5-5-5-5-5---5-5-5---5-5-5-5-5-5--3-3-3-3-3-3-3-3----3-|
A-5-5-5---5-5-5-5-5-5---3-3-3---3-3-3-3-3-3--1-1-1-1-1-1-1-1----3-|
E-3-3-3---3-3-3-3-3-3-------------------------------------------1-|
whoah oh.
e-3--3--1-|
B-3--3--1-|
G-3--3--2-|
D-5--5--3-|
A-5--5--3-|
E-3--3--1-|

Stan:
*
e-------------------3--3--1-|
B-----6-------------3--3--1-|
G---7---7-----------3--3--2-|
D-8-------8-\-3-----5--5--3-|
A-------------------5--5--3-|
E-------------------3--3--1-|

Chorus:

Carl:
*so sow... kid..  doubt...it out... will...     tomorrow.
e-1-1-1---1-1-1---3-3-3---6--8--1-1-1---1-1-1--3--3-3-3--3-3-3--3-3-1-|
B-3-3-3---1-1-1---3-3-3---8-10--3-3-3---1-1-1--3--3-3-3--3-3-3--3-3-1-|
G-3-3-3---2-2-2---3-3-3---8-10--3-3-3---2-2-2--3--3-3-3--3-3-3--3-3-2-|
D-3-3-3---3-3-3---5-5-5---8-10--3-3-3---3-3-3--5--5-5-5--5-5-5--5-5-3-|
A-1-1-1---3-3-3---5-5-5---6--8--1-1-1---3-3-3--5--5-5-5--5-5-5--5-5-3-|
E---------1-1-1---3-3-3-----------------1-1-1--3--3-3-3--3-3-3--3-3-1-|
for all..friends... met... love... just... on... tomorrow.
e-1-1-1---1-1-1---3-3-3---6--8--1-1-1---1-1-1--3--3-3-3--3-3-3--3-3-2-|
B-3-3-3---1-1-1---3-3-3---8-10--3-3-3---1-1-1--3--3-3-3--3-3-3--3-3-2-|
G-3-3-3---2-2-2---3-3-3---8-10--3-3-3---2-2-2--3--3-3-3--3-3-3--3-3-3-|
D-3-3-3---3-3-3---5-5-5---8-10--3-3-3---3-3-3--5--5-5-5--5-5-5--5-5-4-|
A-1-1-1---3-3-3---5-5-5---6--8--1-1-1---3-3-3--5--5-5-5--5-5-5--5-5-4-|
E---------1-1-1---3-3-3-----------------1-1-1--3--3-3-3--3-3-3--3-3-2-|

Stan:
*
e-6-------1-------3-------6--8--14------8-----10--10-10-10--10-10-10-|
B-6-------1-------3-------8-10--16-----10-----11--11-11-11--11-11-11-|
G-7-------2-------3-------8-10--16-----10-----12--12-12-12--12-12-12-|
D-8-------3-------5-------8-10--16-----10-----12--12-12-12--12-12-12-|
A-8-------3-------5-------6--8--14------8-----10--10-10-10--10-10-10-|
E-6-------1-------3--------------------------------------------------|

e-10--10---8--|
B-11--12--10--|
G-12--12--10--|
D-12--12--10--|
A-10--12---8--|
E-------------|

e-6-------1-------3-------6--8--14------8-----10--10-10-10--10-10-10-|
B-6-------1-------3-------8-10--16-----10-----11--11-11-11--11-11-11-|
G-7-------2-------3-------8-10--16-----10-----12--12-12-12--12-12-12-|
D-8-------3-------5-------8-10--16-----10-----12--12-12-12--12-12-12-|
A-8-------3-------5-------6--8--14------8-----10--10-10-10--10-10-10-|
E-6-------1-------3--------------------------------------------------|

e-10--10---9---8-|
B-11--12--11--10-|
G-12--12--11--10-|
D-12--12--11--10-|
A-10--12---9---8-|
E----------------|

Bridge:

Carl:
                         So heres to now...
e-6-6-6-6-6-6-6-6-6-6-6-6--------------5-5-5-5-5-5-5-5-5-5-5-5--|
B-8-8-8-8-8-8-8-8-8-8-8-8--------------7-7-7-7-7-7-7-7-7-7-7-7--|
G-8-8-8-8-8-8-8-8-8-8-8-8--------------7-7-7-7-7-7-7-7-7-7-7-7--|
D-8-8-8-8-8-8-8-8-8-8-8-8--------------7-7-7-7-7-7-7-7-7-7-7-7--|
A-6-6-6-6-6-6-6-6-6-6-6-6--------------5-5-5-5-5-5-5-5-5-5-5-5--|
E---------------------------------------------------------------|
         hearts we tried...  fabric never...
e-3-3-3-3-3-3--3-3-3-3-3-3---3-3-3--3-3-3--1---3---5-|
B-4-4-4-4-4-4--4-4-4-4-4-4---3-3-3--3-3-3--1---3---7-|
G-5-5-5-5-5-5--5-5-5-5-5-5---3-3-3--3-3-3--2---3---7-|
D-5-5-5-5-5-5--5-5-5-5-5-5---5-5-5--5-5-5--3---5---7-|
A-3-3-3-3-3-3--3-3-3-3-3-3---5-5-5--5-5-5--3---5---5-|
E----------------------------3-3-3--3-3-3--1---3-----|

                        and someday when...
e-6-6-6-6-6-6-6-6-6-6-6-6--------------5-5-5-5-5-5-5-5-5-5-5-5--|
B-8-8-8-8-8-8-8-8-8-8-8-8--------------7-7-7-7-7-7-7-7-7-7-7-7--|
G-8-8-8-8-8-8-8-8-8-8-8-8--------------7-7-7-7-7-7-7-7-7-7-7-7--|
D-8-8-8-8-8-8-8-8-8-8-8-8--------------7-7-7-7-7-7-7-7-7-7-7-7--|
A-6-6-6-6-6-6-6-6-6-6-6-6--------------5-5-5-5-5-5-5-5-5-5-5-5--|
E---------------------------------------------------------------|
     cold theres a sentence...  put it on...
e-3-3-3-3-3-3--3-3-3-3-3-3---3-3-3-3-3-3-3-3-3-3-3-|
B-4-4-4-4-4-4--4-4-4-4-4-4---3-3-3-3-3-3-3-3-3-3-3-|
G-5-5-5-5-5-5--5-5-5-5-5-5---3-3-3-3-3-3-3-3-3-3-3-|
D-5-5-5-5-5-5--5-5-5-5-5-5---5-5-5-5-5-5-5-5-5-5-5-|
A-3-3-3-3-3-3--3-3-3-3-3-3---5-5-5-5-5-5-5-5-5-5-5-|
E----------------------------3-3-3-5-3-3-3-3-3-3-3-|

Stan:

e-6-6-6-6-6-6-6-6-6-6-6-6--------------5-5-5-5-5-5-5-5-5-5-5-5--|
B-8-8-8-8-8-8-8-8-8-8-8-8--------------7-7-7-7-7-7-7-7-7-7-7-7--|
G-8-8-8-8-8-8-8-8-8-8-8-8--------------7-7-7-7-7-7-7-7-7-7-7-7--|
D-8-8-8-8-8-8-8-8-8-8-8-8--------------7-7-7-7-7-7-7-7-7-7-7-7--|
A-6-6-6-6-6-6-6-6-6-6-6-6--------------5-5-5-5-5-5-5-5-5-5-5-5--|
E---------------------------------------------------------------|

e-3-3-3-3-3-3--3-3-3-3-3-3---3-3-3--3-3-3--1---3---5-|
B-4-4-4-4-4-4--4-4-4-4-4-4---3-3-3--3-3-3--1---3---7-|
G-5-5-5-5-5-5--5-5-5-5-5-5---3-3-3--3-3-3--2---3---7-|
D-5-5-5-5-5-5--5-5-5-5-5-5---5-5-5--5-5-5--3---5---7-|
A-3-3-3-3-3-3--3-3-3-3-3-3---5-5-5--5-5-5--3---5---5-|
E----------------------------3-3-3--3-3-3--1---3-----|

e-6-6-6-6-6-6-6-6-6-6-6-6--------------5-5-5-5-5-5-5-5-5-5-5-5--|
B-8-8-8-8-8-8-8-8-8-8-8-8--------------7-7-7-7-7-7-7-7-7-7-7-7--|
G-8-8-8-8-8-8-8-8-8-8-8-8--------------7-7-7-7-7-7-7-7-7-7-7-7--|
D-8-8-8-8-8-8-8-8-8-8-8-8--------------7-7-7-7-7-7-7-7-7-7-7-7--|
A-6-6-6-6-6-6-6-6-6-6-6-6--------------5-5-5-5-5-5-5-5-5-5-5-5--|
E---------------------------------------------------------------|

e-3-3-3-3-3-3--3-3-3-3-3-3---3-3-3-3-3-3-3-3-3-3-3-|
B-4-4-4-4-4-4--4-4-4-4-4-4---3-3-3-3-3-3-3-3-3-3-3-|
G-5-5-5-5-5-5--5-5-5-5-5-5---3-3-3-3-3-3-3-3-3-3-3-|
D-5-5-5-5-5-5--5-5-5-5-5-5---5-5-5-5-5-5-5-5-5-5-5-|
A-3-3-3-3-3-3--3-3-3-3-3-3---5-5-5-5-5-5-5-5-5-5-5-|
E----------------------------3-3-3-5-3-3-3-3-3-3-3-|

Break:

Carl:
  ah....       ah....         ah....       ah...
e-6-6-6--6-6-6--6-6-6--6-6-6--6-6-6--6-6-6--6-6-6--6-6-6-|
B-6-6-6--6-6-6--6-6-6--6-6-6--6-6-6--6-6-6--6-6-6--6-6-6-|
G-7-7-7--7-7-7--7-7-7--7-7-7--7-7-7--7-7-7--7-7-7--7-7-7-|
D-8-8-8--8-8-8--8-8-8--8-8-8--6-6-6--6-6-6--6-6-6--6-6-6-|
A-8-8-8--8-8-8--8-8-8--8-8-8--9-9-9--9-9-9--9-9-9--9-9-9-|
E-6-6-6--6-6-6--6-6-6--6-6-6--6-6-6--6-6-6--6-6-6--6-6-6-|
  ah....       ah....         ah....       ah...
e-6-6-6--6-6-6--6-6-6--6-6-6--6-6-6--6-6-6--6-6-6--6-6-6-|
B-6-6-6--6-6-6--6-6-6--6-6-6--6-6-6--6-6-6--6-6-6--6-6-6-|
G-7-7-7--7-7-7--7-7-7--7-7-7--7-7-7--7-7-7--7-7-7--7-7-7-|
D-8-8-8--8-8-8--8-8-8--8-8-8--6-6-6--6-6-6--6-6-6--6-6-6-|
A-8-8-8--8-8-8--8-8-8--8-8-8--9-9-9--9-9-9--9-9-9--9-9-9-|
E-6-6-6--6-6-6--6-6-6--6-6-6--6-6-6--6-6-6--6-6-6--6-6-6-|

Verse 3:

Carl:

  so now I move...            in it wouldn't hurt...
e-6-6-6--6-6-6--6-6-6--6-6-6--6-6-6--6-6-6--6-6-6--6-6-6-|
B-6-6-6--6-6-6--6-6-6--6-6-6--6-6-6--6-6-6--6-6-6--6-6-6-|
G-7-7-7--7-7-7--7-7-7--7-7-7--7-7-7--7-7-7--7-7-7--7-7-7-|
D-8-8-8--8-8-8--8-8-8--8-8-8--6-6-6--6-6-6--6-6-6--6-6-6-|
A-8-8-8--8-8-8--8-8-8--8-8-8--9-9-9--9-9-9--9-9-9--9-9-9-|
E-6-6-6--6-6-6--6-6-6--6-6-6--6-6-6--6-6-6--6-6-6--6-6-6-|
  try and win dont forget... to be.
e-6-6-6--6-6-6--6-6-6--6-6-6--1-1-1--1---2-|
B-8-8-8--8-8-8--8-8-8--8-8-8--1-1-1--1---2-|
G-8-8-8--8-8-8--8-8-8--8-8-8--2-2-2--2---3-|
D-8-8-8--8-8-8--8-8-8--8-8-8--3-3-3--3---4-|
A-6-6-6--6-6-6--6-6-6--6-6-6--3-3-3--3---4-|
E-----------------------------1-1-1--1---2-|

Stan:

e-------------------------------------------------------|
B-------------------------------------------------------|
G-------------------------------------------------------|
D-------------------------------------------------------|
A-88888888888888888888888888--9999999999999999999999999-|
E-------------------------------------------------------|

e----------------------------------------------------------|
B----------------------------------------------------------|
G----------------------------------------------------------|
D----------------------------------------------------------|
A-10101010101010101010101010--131313131313--17171715151515-|
E----------------------------------------------------------|

e-------------|
B-------------|
G-------------|
D-------------|
A-15b-15b-13b-|
E-------------|

Pre-Chorus:

Carl:
  what you wants...     I bet you can't...          take it...
e-3-3-3---3-3-3-3-3-3---3-3-3---3-3-3-3-3-3--1-1-1-1-1-1-1-1----1-|
B-3-3-3---3-3-3-3-3-3---4-4-4---4-4-4-4-4-4--3-3-3-3-3-3-3-3----1-|
G-3-3-3---3-3-3-3-3-3---5-5-5---5-5-5-5-5-5--3-3-3-3-3-3-3-3----2-|
D-5-5-5---5-5-5-5-5-5---5-5-5---5-5-5-5-5-5--3-3-3-3-3-3-3-3----3-|
A-5-5-5---5-5-5-5-5-5---3-3-3---3-3-3-3-3-3--1-1-1-1-1-1-1-1----3-|
E-3-3-3---3-3-3-3-3-3-------------------------------------------1-|
whoah oh.
e-3--3--1-|
B-3--3--1-|
G-3--3--2-|
D-5--5--3-|
A-5--5--3-|
E-3--3--1-|

e-10-10-10--------10---8--8--8--8----8--8----6-6-6-6-6-6-6-6---1-|
B-11-11-11--10h11-11---8--8--8--8----8--8----6-6-6-6-6-6-6-6---1-|
G-12-12-12--------12---8--8--8--8----8--8----7-7-7-7-7-7-7-7---2-|
D-12-12-12------------10-10-10---------------8-8-8-8-8-8-8-8---3-|
A-10-10-10------------10-10-10---------------8-8-8-8-8-8-8-8---3-|
E----------------------8--8--8---------------6-6-6-6-6-6-6-6---1-|

e-3--3--1-|
B-3--3--1-|
G-3--3--2-|
D-5--5--3-|
A-5--5--3-|
E-3--3--1-|

Chorus:

Carl:
                                              *
 so sow... kid..  clout...about... will...     tomorrow.
e-1-1-1---1-1-1---3-3-3---6--8--1-1-1---1-1-1--3--3-3-3--3-3-3--3-3-1-|
B-3-3-3---1-1-1---3-3-3---8-10--3-3-3---1-1-1--3--3-3-3--3-3-3--3-3-1-|
G-3-3-3---2-2-2---3-3-3---8-10--3-3-3---2-2-2--3--3-3-3--3-3-3--3-3-2-|
D-3-3-3---3-3-3---5-5-5---8-10--3-3-3---3-3-3--5--5-5-5--5-5-5--5-5-3-|
A-1-1-1---3-3-3---5-5-5---6--8--1-1-1---3-3-3--5--5-5-5--5-5-5--5-5-3-|
E---------1-1-1---3-3-3-----------------1-1-1--3--3-3-3--3-3-3--3-3-1-|
for all..friends... met... die...just... for... tomorrow.
e-1-1-1---1-1-1---3-3-3---6--8--1-1-1---1-1-1--3--3-3-3--3-3-3--3-3-2-|
B-3-3-3---1-1-1---3-3-3---8-10--3-3-3---1-1-1--3--3-3-3--3-3-3--3-3-2-|
G-3-3-3---2-2-2---3-3-3---8-10--3-3-3---2-2-2--3--3-3-3--3-3-3--3-3-3-|
D-3-3-3---3-3-3---5-5-5---8-10--3-3-3---3-3-3--5--5-5-5--5-5-5--5-5-4-|
A-1-1-1---3-3-3---5-5-5---6--8--1-1-1---3-3-3--5--5-5-5--5-5-5--5-5-4-|
E---------1-1-1---3-3-3-----------------1-1-1--3--3-3-3--3-3-3--3-3-2-|
 so sow... kid..  clout...about... will...     tomorrow.
e-1-1-1---1-1-1---3-3-3---6--8--1-1-1---1-1-1--3--3-3-3--3-3-3--3-3-1-|
B-3-3-3---1-1-1---3-3-3---8-10--3-3-3---1-1-1--3--3-3-3--3-3-3--3-3-1-|
G-3-3-3---2-2-2---3-3-3---8-10--3-3-3---2-2-2--3--3-3-3--3-3-3--3-3-2-|
D-3-3-3---3-3-3---5-5-5---8-10--3-3-3---3-3-3--5--5-5-5--5-5-5--5-5-3-|
A-1-1-1---3-3-3---5-5-5---6--8--1-1-1---3-3-3--5--5-5-5--5-5-5--5-5-3-|
E---------1-1-1---3-3-3-----------------1-1-1--3--3-3-3--3-3-3--3-3-1-|
for all..friends... met... die...just... for... tomorrow.
e-1-1-1---1-1-1---3-3-3---6--8--1-1-1---1-1-1--3--3-3-3--3-3-3--3-3-2-|
B-3-3-3---1-1-1---3-3-3---8-10--3-3-3---1-1-1--3--3-3-3--3-3-3--3-3-2-|
G-3-3-3---2-2-2---3-3-3---8-10--3-3-3---2-2-2--3--3-3-3--3-3-3--3-3-3-|
D-3-3-3---3-3-3---5-5-5---8-10--3-3-3---3-3-3--5--5-5-5--5-5-5--5-5-4-|
A-1-1-1---3-3-3---5-5-5---6--8--1-1-1---3-3-3--5--5-5-5--5-5-5--5-5-4-|
E---------1-1-1---3-3-3-----------------1-1-1--3--3-3-3--3-3-3--3-3-2-|

Stan:
*
e-10--10-10-10--10-10-10--10--10---8-|
B-11--11-11-11--11-11-11--11--12--10-|
G-12--12-12-12--12-12-12--11--12--10-|
D-12--12-12-12--12-12-12--11--12--10-|
A-10--10-10-10--10-10-10--10--10---8-|
E------------------------------------|

e-6-------1-------3-------6--8--14------8-----10--10-10-10--10-10-10-|
B-6-------1-------3-------8-10--16-----10-----11--11-11-11--11-11-11-|
G-7-------2-------3-------8-10--16-----10-----12--12-12-12--12-12-12-|
D-8-------3-------5-------8-10--16-----10-----12--12-12-12--12-12-12-|
A-8-------3-------5-------6--8--14------8-----10--10-10-10--10-10-10-|
E-6-------1-------3--------------------------------------------------|

e-10--10---8-|
B-11--12--10-|
G-12--12--10-|
D-12--12--10-|
A-10--12---8-|
E------------|

e-6-------1-------3-------6--8--14------8-----10--10-10-10--10-10-10-|
B-6-------1-------3-------8-10--16-----10-----11--11-11-11--11-11-11-|
G-7-------2-------3-------8-10--16-----10-----12--12-12-12--12-12-12-|
D-8-------3-------5-------8-10--16-----10-----12--12-12-12--12-12-12-|
A-8-------3-------5-------6--8--14------8-----10--10-10-10--10-10-10-|
E-6-------1-------3--------------------------------------------------|

e-10--10---9---8-|
B-11--12--11--10-|
G-12--12--11--10-|
D-12--12--11--10-|
A-10--12---9---8-|
E----------------|

Outro:

Carl:
*
e-6--6---------------6--6----------------3--3--------|
B-6--6---------------6--6----------------3--3--------|
G-7--7---------------7--7----------------3--3--------|
D-8--8---------------8--8----------------5--5--------|
A-8--8---------------8--8----------------5--5--------|
E-6--6---------------6--6----------------3--3--------|

e-6--6---------------6--6----------------3--3--------|
B-6--6---------------6--6----------------3--3--------|
G-7--7---------------7--7----------------3--3--------|
D-8--8---------------8--8----------------5--5--------|
A-8--8---------------8--8----------------5--5--------|
E-6--6---------------6--6----------------3--3--------|

Stan:
*
e-6--6---------------6--6----------------3--3--------|
B-6--6---------------6--6----------------3--3--------|
G-7--7--7-7-7--8--10-7--7--7-7-7--8--10--3--3--7-6-5-|
D-8--8---------------8--8----------------5--5--------|
A-8--8---------------8--8----------------5--5--------|
E-6--6---------------6--6----------------3--3--------|

e-6--6---------------6--6----------------3--3--------|
B-6--6---------------6--6----------------3--3--------|
G-7--7--7-7-7--8--10-7--7--7-7-7--8--10--3--3--7-6-5-|
D-8--8---------------8--8----------------5--5--------|
A-8--8---------------8--8----------------5--5--------|
E-6--6---------------6--6----------------3--3--------|

Verse 4:

Carl:
 This is where the truth...   there more than 7 deadly...
e-6-6-6--6-6-6--6-6-6--6-6-6--6-6-6--6-6-6--6-6-6--6-6-6-|
B-6-6-6--6-6-6--6-6-6--6-6-6--6-6-6--6-6-6--6-6-6--6-6-6-|
G-7-7-7--7-7-7--7-7-7--7-7-7--7-7-7--7-7-7--7-7-7--7-7-7-|
D-8-8-8--8-8-8--8-8-8--8-8-8--6-6-6--6-6-6--6-6-6--6-6-6-|
A-8-8-8--8-8-8--8-8-8--8-8-8--9-9-9--9-9-9--9-9-9--9-9-9-|
E-6-6-6--6-6-6--6-6-6--6-6-6--6-6-6--6-6-6--6-6-6--6-6-6-|
 and even then  I may have... mind.
e-6-6-6--6-6-6--6-6-6--6-6-6--1-|
B-8-8-8--8-8-8--8-8-8--8-8-8--1-|
G-8-8-8--8-8-8--8-8-8--8-8-8--2-|
D-8-8-8--8-8-8--8-8-8--8-8-8--3-|
A-6-6-6--6-6-6--6-6-6--6-6-6--3-|
E-----------------------------1-|
Suggest correction
Creating personal tab
Creating personal tab
You can edit any tab online and save it as your Personal.

You can edit, replace or remove any tab part or add personal notes – all changes will be seen only by you.

Personal tabs can be accessed anytime from any device, even offline.
Learn more »
Give kudos to tab author, rate the tab!
1 2 3 4 5
comments
print report bad tab
1 comment total.
0 reply
alejoar 73 Mar 30, 2009 03:30 PM

perfect

guest
You may want to rate the tab now too:
select rating
Wanna post a correction for this tab? Suggest correction