Oops, an error
Loading. Please wait.

Swing Lo Magellan tab

343 views 63 this week
no commentswrite comment
1 2 3 4 5
3 more votes to show rating
add to favorites
×
Save as Personal and add changes to this tab that will be seen only by you. Learn more ›
×
You can save this tab as Personal to edit and correct it or add notes. All changes will be seen only by you. Learn more »
launch autoscroll
font size
0
reset
how to read this tab
guitar tuner
edit
Autoscroll
slow
fast
+/-
esc
set tempo
stop
About this tab version
Tabbed the riff, dave switches it up from time to time. I like Capo 4, but it works anywhere. Was this info helpful? Yes No
[Chords Used]
C       X32010
Fmaj7   XX3210
Dm      XX0231
Em      022000
G       320001
F       133210 or x33210

[Intro]
   C          C           C            Fmaj7
e|-------------------0--|--------------0---------|
B|---1----1-----1-----1-|---1-----1----1-1---1---|
G|---0-0h2-2----0-0h2---|---0-0h2--2---2--0h2-2--|
D|---2----------2-------|---2----------3---------|
A|-3-----------3--------|-3----------------------|
E|----------------------|------------------------|

Note: This riff repeats throughout the song, so instead of a Cmajor or Fmaj7 chord, use 
the appropriate riff
      in the choruses

[Verse]
e|-------------------0--|
B|---1----1-----1-----1-|
G|---0-0h2-2----0-0h2---|
D|---2----------2-------|
A|-3-----------3--------|
E|----------------------|

Last night all my attention

e|--------------0---------|
B|---1-----1----1-1---1---|
G|---0-0h2--2---2--0h2-2--|
D|---2----------3---------|
A|-3----------------------|
E|------------------------|

Squinting westward ere the sunset

e|-------------------0--|
B|---1----1-----1-----1-|
G|---0-0h2-2----0-0h2---|
D|---2----------2-------|
A|-3-----------3--------|
E|----------------------|

With a map and a compass

e|--------------0---------|
B|---1-----1----1-1---1---|
G|---0-0h2--2---2--0h2-2--|
D|---2----------3---------|
A|-3----------------------|
E|------------------------|

When a man reached up said something

[Chorus]
Dm
There
Em
Against the sky
C          G       G
A point of light

[Play the second measure of G into this riff, back to Dm]
e|---------------|
B|---------------|
G|----------0----|
D|-------0h2-2---|
A|---0h2---------|
E|---------------|

Dm
Too
Em
Invisible
C       G
To give itself
C            F
To the naked eye

[Verse]
e|-------------------0--|
B|---1----1-----1-----1-|
G|---0-0h2-2----0-0h2---|
D|---2----------2-------|
A|-3-----------3--------|
E|----------------------|

On the shore people yellin'

e|--------------0---------|
B|---1-----1----1-1---1---|
G|---0-0h2--2---2--0h2-2--|
D|---2----------3---------|
A|-3----------------------|
E|------------------------|

In their eyes a great reflection

e|-------------------0--|
B|---1----1-----1-----1-|
G|---0-0h2-2----0-0h2---|
D|---2----------2-------|
A|-3-----------3--------|
E|----------------------|

In the grid oh where their position

e|--------------0---------|
B|---1-----1----1-1---1---|
G|---0-0h2--2---2--0h2-2--|
D|---2----------3---------|
A|-3----------------------|
E|------------------------|

Unconcerned with intuition

Dm
There
Em
Could never be
C  G        G
No sympathy

e|---------------|
B|---------------|
G|----------0----|
D|-------0h2-2---|
A|---0h2---------|
E|---------------|

Dm
From
C    G
That wilderness
C        G
So let it be
C  F
Arrested

[Instrumental Break]
   C          C           C            Fmaj7
e|-------------------0--|--------------0---------|
B|---1----1-----1-----1-|---1-----1----1-1---1---|
G|---0-0h2-2----0-0h2---|---0-0h2--2---2--0h2-2--|  (x2)
D|---2----------2-------|---2----------3---------|
A|-3-----------3--------|-3----------------------|
E|----------------------|------------------------|

[Verse]
e|-------------------0--|
B|---1----1-----1-----1-|
G|---0-0h2-2----0-0h2---|
D|---2----------2-------|
A|-3-----------3--------|
E|----------------------|

Swing low oh Magellan

e|--------------0---------|
B|---1-----1----1-1---1---|
G|---0-0h2--2---2--0h2-2--|
D|---2----------3---------|
A|-3----------------------|
E|------------------------|

Nine by six or eight by seven

e|-------------------0--|
B|---1----1-----1-----1-|
G|---0-0h2-2----0-0h2---|
D|---2----------2-------|
A|-3-----------3--------|
E|----------------------|

Post a sentinel at the border

e|--------------0---------|
B|---1-----1----1-1---1---|
G|---0-0h2--2---2--0h2-2--|
D|---2----------3---------|
A|-3----------------------|
E|------------------------|
Of what you attempt, what you
     Dm
ignore

Em
I saw my frame
C         G        G
In a pool of light

e|---------------|
B|---------------|
G|----------0----|
D|-------0h2-2---|
A|---0h2---------|
E|---------------|

   Dm
Oh drowned
Em
In doubt and shame
C          G
But I knew that I
C        F
Had lost my sight

[Outro]
e|---0--------------0---|---0-------0------------|
B|--------1----1-----1--|-------1---1------------|
G|-----0h2-2---0-0h2----|----0h2-2--0------------|
D|-------------2--------|-----------2------------|
A|-3---------3----------|--3--------3------------|
E|----------------------|------------------------|



************************************

| h  Hammer-on

************************************

            
            
Suggest correction
Creating personal tab
Creating personal tab
You can edit any tab online and save it as your Personal.

You can edit, replace or remove any tab part or add personal notes – all changes will be seen only by you.

Personal tabs can be accessed anytime from any device, even offline.
Learn more »
Give kudos to tab author, rate the tab!
1 2 3 4 5
comments
print report bad tab
guest
You may want to rate the tab now too:
select rating
Wanna post a correction for this tab? Suggest correction