Oops, an error
Loading. Please wait.

5 Year Plan Tab

version 1
version 1

Whole song

4,673 views 18 this week
2 commentsread comments
1 2 3 4 5
please rate
add to favorites
launch autoscroll
font size
0
reset
how to read this tab
guitar tuner
Autoscroll
slow
fast
+/-
esc
set tempo
stop
Help us to improve Ultimate-Guitar.com Take our survey!
×
this tab i got from watching a guy play it

e-------------------------------------------|
b-------------------------------------------|
g-------------------------------------------|
d-------------------------------------------| intro riff 4x
a-----8-7-----10-8-----8-7-----7-8----------|
e-0-0-----0-0------0-0-----0-0--------------|

e-------------------------------------|
b-------------------------------------|
g-------------------------------------| i lose you win
d----10/9-----12/10-----10/9-----9/10-|
a-----8/7-----10/8-------8/7-----7/8--|
e-0-0-----0-0-------0-0------0-0------|

e------------------------------------|
b------------------------------------|
g------------------------------------|
d----10/9-----12/10-----10/9-----9---|
a-----8/7-----10/8-------8/7-----9---|
e-0-0-----0-0-------0-0------0-0-7---|
 do those riffs a few times

e----------------------------|
b----------------------------|
g----------------------------|
d----------------------------|
a-------0-2-3/6~-------0-2-3-|
e-0-2-3----------0-2-3-------|


thrashing part

e----------------------------|
b----------------------------|
g----------------------------|
d-------------------3-3------|
a-2-222-222-222-222-3-3------|
e-0-000-000-000-000-1-1------|
rhythm may not be one hundred percent but after a few times switch it up
like this

e----------------------------|
b----------------------------|
g----------------------------|
d-------------------3-4------|
a-2-222-222-222-222-3-4------|
e-0-000-000-000-000-1-2------|
which leads into the next riff


e---------------------------------------------------------------------------|
b---------------------------------------------------------------------------|
g-55555555555555555555555555555555555-44444444444444444444444444444444444444|
d-55555555555555555555555555555555555-44444444444444444444444444444444444444|
a-33333333333333333333333333333333333-22222222222222222222222222222222222222|
e---------------------------------------------------------------------------|

e---------------------------------------------------------------------------|
b---------------------------------------------------------------------------|
g-55555555555555555555555555555555555-4444444444444444444-3-2---------------|
d-55555555555555555555555555555555555-4444444444444444444-3-2---------------|
a-33333333333333333333333333333333333-2222222222222222222-1-0---------------|
e---------------------------------------------------------------------------|
and back into thrashing riff
Suggest correction
Give kudos to tab author, rate the tab!
1 2 3 4 5
comments
print report bad tab
2 comments total.
0 reply
FiveYearPlan 10 wrote on January 15 2015, 12:53 pm, edited at 12:54 pm

the part after the intro riff should be like this;e----------------------------|b----------------------------|g----------------------------|d----------------------------| a-------------3--------------|e-0-2-3-0-2-3----------------|

0 reply
FiveYearPlan 10 wrote on January 15 2015, 12:55 pm

the part after the intro riff should be like this;

e----------------------------|
b----------------------------|
g----------------------------|
d----------------------------|
a-------------3--------------|
e-0-2-3-0-2-3----------------|

guest
You may want to rate the tab now too:
select rating
Wanna post a correction for this tab? Suggest correction