Oops, an error
Loading. Please wait.

Couch Slouch Tab

version 2
version 2

Whole song

1,059 views 3 this week
no commentswrite comment
1 2 3 4 5
please rate
add to favorites
launch autoscroll
font size
0
reset
how to read this tab
guitar tuner
Autoscroll
slow
fast
+/-
esc
set tempo
stop
Help us to improve Ultimate-Guitar.com Take our survey!
×
Contributor
Difficulty
Binbags 5,672
novice
Band:  DRI
Album: Dirty Rotten LP
Song:  Couch Slouch

Copyright (c)  (Roudrunner) (1988)
Version 1.0 - (01/04/06)


.  - palm mute           /  - slide up to
\  - slide down to       ~  - vibrato
h  - hammer on           b  - Bend
p  - pull off            Suffixes for bend
t  - tap                 f  - full bend    h - half bend
ph - pinched harmonic    q  - quarter bend t - tap bend
*  - see comment         ^  - Hold bend    r release bend
x  - Stuccatto           ~  - vibrato bend
,  - slight palm mute    () - ghost note, sustained note
"  - tremolo note        <> - Trill

Tunning E A D G B E
 
 Intro


E-----------|
B-----------|
G-----------|
D-----------|
A-----------|
E-2/--------|

 Main Riff

E-----------------------------------|
B-----------------------------------|
G---------8-8-8-8\7-7-7-7/10101010--|
D-101010108-8-8-8\7-7-7-7/10101010--|
A-101010106-6-6-6\5-5-5-5/8-8-8-8---|
E-8-8-8-8---------------------------| Rpt 5 X

 Chorus

E-----------------------------------------------------------------|
B-----------------------------------------------------------------|
G-8-8-8-8-8-8-8-8\7-7-7-7-7-7-7-7/8-8-8-8-8-8-8-8\7-7-7-7-7-7-7-7-|
D-8-8-8-8-8-8-8-8\7-7-7-7-7-7-7-7/8-8-8-8-8-8-8-8\7-7-7-7-7-7-7-7-|
A-6-6-6-6-6-6-6-6\5-5-5-5-5-5-5-5/6-6-6-6-6-6-6-6\5-5-5-5-5-5-5-5-|
E-----------------------------------------------------------------|

E-----------------------------------------------|
B-----------------------------------------------|
G-----------------------------------------------|
D-8-8-8-8-8-8-8-8\7------8-8-8-8-8-8-8-8\7------|
A-8-8-8-8-8-8-8-8\7------8-8-8-8-8-8-8-8\7------|
E-6-6-6-6-6-6-6-6\5------6-6-6-6-6-6-6-6\5------|

E-----------------------------------|
B-----------------------------------|
G---------8-8-8-8\7-7-7-7/10101010--|
D-101010108-8-8-8\7-7-7-7/10101010--|
A-101010106-6-6-6\5-5-5-5/8-8-8-8---|
E-8-8-8-8---------------------------|
                 pick scrapes
E-----------------------------------|
B-----------------------------------|
G---------8-8-8-8\-\---\-\----------|
D-101010108-8-8-8-\-\---\-\---------|
A-101010106-6-6-6--\-\---\-\--------|
E-8-8-8-8---------------------------|

E-----------------------------------|
B-----------------------------------|
G---------8-8-8-8\7-7-7-7/10101010--|
D-101010108-8-8-8\7-7-7-7/10101010--|
A-101010106-6-6-6\5-5-5-5/8-8-8-8---|
E-8-8-8-8---------------------------| Rpt 2 X

 Rpt Chorus

E-----------------------------------|
B-----------------------------------|
G---------8-8-8-8\7-7-7-7/10101010--|
D-101010108-8-8-8\7-7-7-7/10101010--|
A-101010106-6-6-6\5-5-5-5/8-8-8-8---|
E-8-8-8-8---------------------------|
                 pick scrapes
E-----------------------------------|
B-----------------------------------|
G---------8-8-8-8\-\---\-\----------|
D-101010108-8-8-8-\-\---\-\---------|
A-101010106-6-6-6--\-\---\-\--------|
E-8-8-8-8---------------------------|

 Rpt Verse 

E-----------------------------------------------------------------|
B-----------------------------------------------------------------|
G-8-8-8-8-8-8-8-8\7-7-7-7-7-7-7-7/8-8-8-8-8-8-8-8\7-7-7-7-7-7-7-7-|
D-8-8-8-8-8-8-8-8\7-7-7-7-7-7-7-7/8-8-8-8-8-8-8-8\7-7-7-7-7-7-7-7-|
A-6-6-6-6-6-6-6-6\5-5-5-5-5-5-5-5/6-6-6-6-6-6-6-6\5-5-5-5-5-5-5-5-|
E-----------------------------------------------------------------|

E---------------------------------|
B---------------------------------|
G---------------------------------|
D-8-8-8-8-8-8-8-8\7-7-7-7-7-7-7-7-|
A-8-8-8-8-8-8-8-8\7-7-7-7-7-7-7-7-|
E-6-6-6-6-6-6-6-6\5-5-5-5-5-5-5-5-|

E--------------------------------------------------|
B--------------------------------------------------|
G--------------------------------------------------|
D-8--8--8--8--8--8--8--8-\7--7--7--7--7--7--7--7-/-|
A-8--8--8--8--8--8--8--8-\7--7--7--7--7--7--7--7-/-|
E-6--6--6--6--6--6--6--6-\5--5--5--5--5--5--5--5-/-| Rpt

E--------------------------------------------------|
B--------------------------------------------------|
G--------------------------------------------------|
D-8--8--8--8--8--8--8--8-\7----------(7)-----------|
A-8--8--8--8--8--8--8--8-\7----------(7)-----------|
E-6--6--6--6--6--6--6--6-\5----------(5)-----------|

E-----------|
B-----------|
G-----------|
D-----------|
A-----------|
E-2/--------|

E-----------------------------------|
B-----------------------------------|
G---------8-8-8-8\7-7-7-7/10101010--|
D-101010108-8-8-8\7-7-7-7/10101010--|
A-101010106-6-6-6\5-5-5-5/8-8-8-8---|
E-8-8-8-8---------------------------|

                 pick scrapes
E-----------------------------------|
B-----------------------------------|
G---------8-8-8-8\-\---\-\----------|
D-101010108-8-8-8-\-\---\-\---------|
A-101010106-6-6-6--\-\---\-\--------|
E-8-8-8-8---------------------------|

 Rpt Verse

E-----------------------------------------------------------------|
B-----------------------------------------------------------------|
G-8-8-8-8-8-8-8-8\7-7-7-7-7-7-7-7/8-8-8-8-8-8-8-8\7-7-7-7-7-7-7-7-|
D-8-8-8-8-8-8-8-8\7-7-7-7-7-7-7-7/8-8-8-8-8-8-8-8\7-7-7-7-7-7-7-7-|
A-6-6-6-6-6-6-6-6\5-5-5-5-5-5-5-5/6-6-6-6-6-6-6-6\5-5-5-5-5-5-5-5-|
E-----------------------------------------------------------------|

E----------------------------|
B----------------------------|
G----------------------------|
D-8--8--8--8--8--8--8--8-\7--|
A-8--8--8--8--8--8--8--8-\7--|
E-6--6--6--6--6--6--6--6-\5--|



END

comments
We did not receive enough feedback on this tab! Please rate:
print report bad tab
1 2 3 4 5
I want to post or [tab]
guest
You may want to rate the tab now too:
select rating
Please do not post tabs as comments. Select "correction" instead!