Oops, an error
Loading. Please wait.

Dead In A Ditch Tab

391 views 1 this week
no commentswrite comment
1 2 3 4 5
please rate
add to favorites
launch autoscroll
font size
0
reset
how to read this tab
guitar tuner
Tab Pro tools
  • play this tab
  • loop segment
  • change instrument
  • show fretboard
  • metronome
×
Best way to learn
"Dead In A Ditch"
Autoscroll
slow
fast
+/-
esc
set tempo
stop
Contributor
Difficulty
novice
Band:  DRI
Album: Four of a Kind
Song:  Dead in a Ditch

Copyright (c)  (Roadrunner) (1988)
Version 1.0 - (01/04/06)



.  - palm mute           /  - slide up to
\  - slide down to       ~  - vibrato
h  - hammer on           b  - Bend
p  - pull off            Suffixes for bend
t  - tap                 f  - full bend    h - half bend
ph - pinched harmonic    q  - quarter bend t - tap bend
*  - see comment         ^  - Hold bend    r release bend
x  - Stuccatto           ~  - vibrato bend
,  - slight palm mute    () - ghost note, sustained note
"  - tremolo note        <> - Trill

Tunning E A D G B E
 



E-----------------------------------------------------------------|
B-----------------------------------------------------------------|
G--------------------------------------5--(5)-/7--8/10-5--(5)-/7--|
D-4-4-4/5------------------4-4-4/5-5-5-5--(5)-/7--8/10-5--(5)-/7--|
A-4-4-4/5------------------4-4-4/5-5-5-3--(3)-/5--6/8--3--(3)-/5--|
E-2-2-2/3------------------2-2-2/3-3-3---------5---------------5--|

                pick slide~~~~~~~~~~        pick slide
E-----------------------------------------------------|
B-----------------------------------------------------|
G-8/10-5-------(5)------------------------------------|
D-8/10-5-------(5)--\-\--------------------------\-\--|
A-6/8--3-------(3)---\-\---3---------to feedback--\-\-|
E-----------------------------------------------------|

 Verse
                             PM
E---------------------------------|
B---------------------------------|
G-5--(5)-/7-/8-\5--(5)-\3-(3)---3-|
D-5--(5)-/7-/8-\5--(5)-\3-(3)---3-|
A-3--(3)-/5-/6-\3--(3)-\1-(1)-0-1-|
E---------------------------------| Rpt 2 X

 Chorus

E----------------------------------------|
B----------------------------------------|
G----------------------------------------|
D-4---(4)--/5--(5)--5-\4-/5-4---(4)--/5\-|
A-4---(4)--/5--(5)--3-\2-/3-4---(4)--/5\-|
E-2---(2)--/3--(3)----------2---(2)--/3\-|

E--------------------|
B--------------------|
G--------------------|
D-4-4-4/5------------|
A-4-4-4/5------------|
E-2-2-2/3------------| Rpt 3 X



END

comments
We did not receive enough feedback on this tab! Please rate:
print report bad tab
1 2 3 4 5
I want to post or [tab]
guest
You may want to rate the tab now too:
select rating
Please do not post tabs as comments. Select "correction" instead!