Oops, an error
Loading. Please wait.

Girl With A Gun Tab

670 views 1 this week
no commentswrite comment
1 2 3 4 5
please rate
add to favorites
launch autoscroll
font size
0
reset
how to read this tab
guitar tuner
Autoscroll
slow
fast
+/-
esc
set tempo
stop
Help us to improve Ultimate-Guitar.com Take our survey!
×
Author
Difficulty
intermediate
-----------------------------------------------------------------------------
                             Girl With a Gun - DRI
-----------------------------------------------------------------------------
Tabbed by: taylor sellers

ive recently fallen in love with DRI and wish someone would've tabbed this cos its 
a sick f***in song, but i had to figure it out myself
your welcome! dont steal this tab and put it on another website i worked hard on 
this tab especially


Tuning:Standard

intro:          | sum leads/fills (wing it)
throw sum whammy bar shit with the E chords
e|----(0)-------|-12-------------------------------|
b|---(0)--------|-12----12-------------------------|
G|--------------|-12----14^---2p0h2p0h2+----2b-----|
D|--2~~~----2---|----or----or------------or--------|
A|--2~~~----2---|----------------------------------|
E|-/0~~~--0-0---|----------------------------------|
PM        .

bass line
G|----------------------------------|
D|-----9------8-------7----5---5----|its a lil off
A|--/7--7--/7--7---/7--7-----7---7--|but hey...
E|-0-----0-------0------------------|


Main/verse riff
e|----------------------------------|
b|----------------------------------|
G|----------------------------------|
D|----------------------------------|i bend the notes slightly and i
A|----------------------------------|think DRI does too, you can play power
E|-0-0000-3^-0-000-2-0-000-1-0-1-3--|chords as well but i dont think they do
PM   ....     ...     ...

pre-chorus - "shes gonna hurt some-one THAT girls got a gun"
e|----------------------------------------|
b|----------------------------------------|
G|----------------------------------------|
D|-2--5--4-----------2--5--4--------------|
A|-2--5--4---5-4-3---2--5--4---7-8-9------|
E|-0--3--2---3-2-1---0--3--2---5-6-7------|
PM           . . .  

Chorus - "shes gota .28, .38, .357 magnum" "girl witha gun..."
e|----------------------|
b|----------------------|
G|----------------------|
D|----------------------|
A|-5-4-3--7-8-9---------|
E|-3-2-1--5-6-7---------|
PM . . . 

Verse
PRECHORUS
chorus

Break-down (chords, rhythm isnt hard to wing)
e|------------|-------------------------|
b|------------|-------------------------|use pentatonic scale
G|------------|-------------------------|for solo
D|------------|then------------solo-----|sounds easy but too
A|-2-----5----|------7--8--9------------|much to learn right now
E|-0-----3----|------5--6--7------------|for me
light palm muting throughout


AFTER SOLO
e|--------------------------------------------------|
b|--------------------------------------------------|
G|--------------------------------------------------|
D|--------------------------------------------------|
A|-2--8--7--8-7-5---2--5--7---8-7-5-----------------|
E|-0--6--5--6-5-3---0--3--5---6-5-3-----------------|
PM          . . .             . . .

VERSE
PRECHORUS
PRECHORUS (PM)
CHORUS
BREAK DOWN
END
Suggest correction
Give kudos to tab author, rate the tab!
1 2 3 4 5
comments
print report bad tab
guest
You may want to rate the tab now too:
select rating
Wanna post a correction for this tab? Suggest correction