Oops, an error
Loading. Please wait.

I Dont Need Society Tab

version 2
version 2

Whole song

1,015 views 1 this week
no commentswrite comment
1 2 3 4 5
2 more votes to show rating
add to favorites
launch autoscroll
font size
0
reset
how to read this tab
guitar tuner
Autoscroll
slow
fast
+/-
esc
set tempo
stop
Help us to improve Ultimate-Guitar.com Take our survey!
×
Author
Difficulty
novice
Band:  DRI
Album: Dealing With It
Song:  I Don't Need Society

Copyright (c)  (Armageddon) (1986)
Version 1.0 - (01/04/06)



.  - palm mute           /  - slide up to
\  - slide down to       ~  - vibrato
h  - hammer on           b  - Bend
p  - pull off            Suffixes for bend
t  - tap                 f  - full bend    h - half bend
ph - pinched harmonic    q  - quarter bend t - tap bend
*  - see comment         ^  - Hold bend    r release bend
x  - Stuccatto           ~  - vibrato bend
,  - slight palm mute    () - ghost note, sustained note
"  - tremolo note        <> - Trill

Tunning E A D G B E
 

 Intro

   Gradual fade in
E----------------------------------------------------------------------|
B----------------------------------------------------------------------|
G----------------------------------------------------------------------|
D-9-9-9-9-9-9-9-9-9-9-9-9-9-9-9-9-9-9-9-9-9-9-9-9-9-9-9-9-9-9-9-9-9-x\-|
A-9-9-9-9-9-9-9-9-9-9-9-9-9-9-9-9-9-9-9-9-9-9-9-9-9-9-9-9-9-9-9-9-9-x\-|
E-7-7-7-7-7-7-7-7-7-7-7-7-7-7-7-7-7-7-7-7-7-7-7-7-7-7-7-7-7-7-7-7-7-x\-|

 Rpt this pattern many times for first verse
E-------------------------------------------------------------------|
B-------------------------------------------------------------------|
G-------------------------------------------------------------------|
D-9-9-9-9-9-9-9-9-9-9-9-9-9-9-9-9-9-9-9-9-9-9-9-9-9-9-9-9-9-9-9-9-9-|
A-9-9-9-9-9-9-9-9-9-9-9-9-9-9-9-9-9-9-9-9-9-9-9-9-9-9-9-9-9-9-9-9-9-|
E-7-7-7-7-7-7-7-7-7-7-7-7-7-7-7-7-7-7-7-7-7-7-7-7-7-7-7-7-7-7-7-7-7-|


E---------------------------------------------<7>----------|
B------------------------------------------------<7><7><7>-|
G----------------------------------------------------------|
D----------------------------------------------------------|
A-9-99\8-88\7-77\6-66\5-555-5-555-5-555-5-5/9--------------|
E-7-77\6-66\5-55\4-44\3-333-3-333-3-333-3-3/7--------------|
                                       PM
E------------------<7>--------------------------------|
B---------------------<7>0----------------------------|
G----------------------------------7------------------|
D------------------------------------9----9--9--9--9--|
A-9--------------9------------9-----------9--9--9--9--|
E-7-<7><7><7><7>-7--------<7>-7-<7>----77-7--7--7--7--|

 Main Riff

E------------------|
B------------------|
G------------------|
D-9-9-9-9\5-5-5-5--|
A-9-9-9-9\5-5-5-5--|
E-7-7-7-7\3-3-3-3--| Rpt 13 X

  Guitar 1
E[------------------------------------------|
B[------------------------------------------|
G[-------7--9-------------------------7--9--|
D[-7--5--7--9--9-9-9-9\5-5-5-5--7--5--5--7--|
A[-7--5--5--7--9-9-9-9\5-5-5-5--7--5--5--7--|
E[-5--3--------7-7-7-7\3-3-3-3--5--3--------|
 [Guitar 2     ~~~~~~~~~~~~~~~
E[------------------------------------------|
B[-------------7---7--\3---3----------------|
G[-------------9b--9b-\5b--5b---------------|
D[------------------------------------------|
A[------------------------------------------|
E[------------------------------------------|

E------------------|
B------------------|
G------------------|
D-9-9-9-9\5-5-5-5--|
A-9-9-9-9\5-5-5-5--|
E-7-7-7-7\3-3-3-3--| Rpt 9 X

  Guitar 1
E[------------------------------------------------------------------------|
B[------------------------------------------------------------<7><7><7>---|
G[-------7--9-------------------------7--9--------------------------------|
D[-7--5--7--9--9-9-9-9\5-5-5-5--7--5--5--7--9-9-9-9\5-5-5-5-9-----------9-|
A[-7--5--5--7--9-9-9-9\5-5-5-5--7--5--5--7--9-9-9-9\5-5-5-5-9-------------|
E[-5--3--------7-7-7-7\3-3-3-3--5--3--------7-7-7-7\3-3-3-3-7-------------|
 [Guitar 2     ~~~~~~~~~~~~~~~
E[------------------------------------------------------------------------|
B[-------------7---7--\3---3----------------------------------------------|
G[-------------9b--9b-\5b--5b---------------------------------------------|
D[------------------------------------------------------------------------|
A[------------------------------------------------------------------------|
E[------------------------------------------------------------------------|

E------------------|
B------------------|
G------------------|
D-9-9-9-9\5-5-5-5--|
A-9-9-9-9\5-5-5-5--|
E-7-7-7-7\3-3-3-3--| Rpt 9 X

  Guitar 1
E[---------------------------------------------|
B[---------------------------------------------|
G[-------7--9-------------------------7--9-----|
D[-7--5--7--9--9-9-9-9\5-5-5-5--7--5--5--7--9\-|
A[-7--5--5--7--9-9-9-9\5-5-5-5--7--5--5--7--9\-|
E[-5--3--------7-7-7-7\3-3-3-3--5--3--------7\-|
 [Guitar 2     ~~~~~~~~~~~~~~~
E[---------------------------------------------|
B[-------------7---7--\3---3-------------------|
G[-------------9b--9b-\5b--5b------------------|
D[---------------------------------------------|
A[---------------------------------------------|
E[---------------------------------------------|






END

Suggest correction
Give kudos to tab author, rate the tab!
1 2 3 4 5
comments
print report bad tab
guest
You may want to rate the tab now too:
select rating
Wanna post a correction for this tab? Suggest correction