Oops, an error
Loading. Please wait.

Id Rather Be Sleeping Tab

version 2
version 2

Whole song

Interactive

275 views 1 this week
no commentswrite comment
1 2 3 4 5
please rate
add to favorites
launch autoscroll
font size
0
reset
how to read this tab
guitar tuner
Autoscroll
slow
fast
+/-
esc
set tempo
stop
Help us to improve Ultimate-Guitar.com Take our survey!
×
Author
Difficulty
novice
Band:  DRI
Album: Dealing With It
Song:  I'd Rather Be Sleeping

Copyright (c)  (Armageddon) (1986)
Version 1.0 - (01/04/06)




.  - palm mute           /  - slide up to
\  - slide down to       ~  - vibrato
h  - hammer on           b  - Bend
p  - pull off            Suffixes for bend
t  - tap                 f  - full bend    h - half bend
ph - pinched harmonic    q  - quarter bend t - tap bend
*  - see comment         ^  - Hold bend    r release bend
x  - Stuccatto           ~  - vibrato bend
,  - slight palm mute    () - ghost note, sustained note
"  - tremolo note        <> - Trill

Tunning E A D G B E
 
 Bass on own

 Verse

E-------------------------|
B-------------------------|
G-9-9-9-------------7-7-7-|
D-9-9-9-1010107-7-7-7-7-7-|
A-7-7-7-1010107-7-7-5-5-5-|
E-------8-8-8-5-5-5-------| Rpt 5 X

 Chorus

E-------------------------------------------------------------------------|
B-------------------------------------------------------------------------|
G-9--9--9-\5--5--X--9--9--9-\5--5-----9--9--9-\5--5-----------------------|
D-9--9--9-\5--5--X--9--9--9-\5--5-----9--9--9-\5--5----7-9--9--9--9--9----|
A-7--7--7-\3--3-----7--7--7-\3--3-----7--7--7-\3--3-/7---9--9--9--9--9----|
E-----------------0--------------------------------------7--7--7--7--7----|

E--------------------------------------------------------------------------|
B--------------------------------------------------------------------------|
G-9--9--9-\5--5--4--9--9--9-\5--5-----9--9--9-\5--5------------------------|
D-9--9--9-\5--5-----9--9--9-\5--5-----9--9--9-\5--5------9--9--9--9--9-(9)-|
A-7--7--7-\3--3-----7--7--7-\3--3-----7--7--7-\3--3------9--9--9--9--9-(9)-|
E-7--7--7-\3--3---0-7--7--7-\3--3-----7--7--7-\3--3-/8---7--7--7--7--7-(7)-|

 Bass on own

E-------------------------|
B-------------------------|
G-9-9-9-------------7-7-7-|
D-9-9-9-1010107-7-7-7-7-7-|
A-7-7-7-1010107-7-7-5-5-5-|
E-------8-8-8-5-5-5-------| Rpt 5 X

E------------------------------------------------------------------------|
B--------------<3>-------------------------------------------------------|
G-9--9--9-\5--5--<4>9--9--9-\5--5-----9--9--9-\5--5----------------------|
D-9--9--9-\5--5-----9--9--9-\5--5-----9--9--9-\5--5----7-9--9--9--9--9---|
A-7--7--7-\3--3-----7--7--7-\3--3-----7--7--7-\3--3-/7---9--9--9--9--9---|
E-7--7--7-\3--3-----7--7--7-\3--3-----7--7--7-\3--3------7--7--7--7--7---|

E-----------------------------------------------------------------------|
B-----------------------------------------------------------------------|
G-9--9--9-\5--5--4--9--9--9-\5--5-----9--9--9-\5--5---------------------|
D-9--9--9-\5--5-----9--9--9-\5--5-----9--9--9-\5--5------9--9--9--9--9--|
A-7--7--7-\3--3-----7--7--7-\3--3-----7--7--7-\3--3------9--9--9--9--9--|
E-7--7--7-\3--3---0-7--7--7-\3--3-----7--7--7-\3--3-/8--\7--7--7--7--7--|



END

Suggest correction
What's this?
You can suggest a correction to this tab. Community and Mods will review your correction and vote to approve or reject it.
comments
We did not receive enough feedback on this tab! Please rate:
print report bad tab
1 2 3 4 5
guest
You may want to rate the tab now too:
select rating
Please do not post tabs as comments. Select "correction" instead!