Oops, an error
Loading. Please wait.

Reaganomics Bass Tab

806 views 1 this week
no commentswrite comment
1 2 3 4 5
please rate
add to favorites
launch autoscroll
font size
0
reset
guitar tuner
Autoscroll
slow
fast
+/-
esc
set tempo
stop
Help us to improve Ultimate-Guitar.com Take our survey!
×
Author
DRI
Reaganomics
Dealing With It

Standard:
G D A E


Intro:
                                     x1
G-6-4-4------------------------------||---||
D----6-6-4-6-4-4---------------------||---||
A-------------6-6-4-6-4-4------------||---||
E----------------------6-6-4-6-4-2-4-||---||

Verse:
                                                                 x4
G----------------------------------------------------------------||
D----------------------------------------------------------------||
A--------------------------------------------------------4-4-4-4-||
E-4-4-4-4-5-5-5-5-4-4-4-4-5-5-5-5-4-4-4-4-5-5-5-5-4-4-4-4--------||

Break:
                                   x1
G-6-4-4----------------------------||
D----6-6-4-6-4-4-------------------||
A-------------6-6-4-6-4-4----------||
E----------------------6-6-4-6-4-2-||


Verse:
                                                                 x4
G----------------------------------------------------------------||
D----------------------------------------------------------------||
A--------------------------------------------------------4-4-4-4-||
E-4-4-4-4-5-5-5-5-4-4-4-4-5-5-5-5-4-4-4-4-5-5-5-5-4-4-4-4--------||


Outro:
                                     x1
G-6-4-4------------------------------||
D----6-6-4-6-4-4---------------------||
A-------------6-6-4-6-4-4------------||
E----------------------6-6-4-6-4-2-4-||



Greg
Nutes1965@msn.com
Suggest correction
Give kudos to tab author, rate the tab!
1 2 3 4 5
comments
print report bad tab
guest
You may want to rate the tab now too:
select rating
Wanna post a correction for this tab? Suggest correction