Oops, an error
Loading. Please wait.

Suit And Tie Guy Tab

version 1
version 1

Whole song

5,965 views 6 this week
2 commentsread comments
1 2 3 4 5
excellent!
x 4
add to favorites
launch autoscroll
font size
0
reset
how to read this tab
guitar tuner
Autoscroll
slow
fast
+/-
esc
set tempo
stop
Help us to improve Ultimate-Guitar.com Take our survey!
×
Difficulty
novice
Dirty Rotten Embiciles
Four of a kind
Suit and tie guy

Copyright (c)  Restless Records 1988


Transcribed By: 40oz
crowley_67@yahoo.com


.  - palm mute           /  - slide up to
\  - slide down to       ~  - vibrato
h  - hammer on           b  - Bend
p  - pull off            Suffixes for bend
t  - tap                 f  - full bend    h - half bend
ph - pinched harmonic    q  - quarter bend t - tap bend
*  - see comment         ^  - Hold bend    r release bend
x  - Stuccatto           ~  - vibrato bend
,  - slight palm mute    () - ghost note, sustained note
"  - tremolo note        <> - Trill

Tuning E A D G B E


---------------------------------------------------------|
---------------------------------------------------------|
---------------------------------------------------------|
---------------------------------------------------------|
-2---------5-4-5-4--------4---4-5-----5-----5-----5------|
-0--0-0-0--3-2-3-2--2-2-2-2-0-2-3-3-3-3-3-3-3-3-3-3------|

-----------------------------------------------------------|
-----------------------------------------------------------|
-----------------------------------------------------------|
-----------------------------------------------------------|
-5-4-2--------5-4-5-4---------5---5-6------6------6------6-|
-3-2-0--0-0-0-3-2-3-2--2-2-2--3-0-3-4--4-4-4--4-4-4--4-4-4-|


                        2x
--------------------------I--------------------------------|
--------------------------I--------------------------------|
--------------------------I--------------------------------|
--------------------------I--------------------------------|
-5-6-10-----9-----8-----7-I-5-6-10-9----8--7---10-9---8--7-|
-3-4-8--8-8-7-7-7-6-6-6-5-I-3-4-8--7----6--5---8--7---6--5-|


                                                     2x
-----------------I--------------7----6----5------------|
-----------------I--------------7----6----5------------|
-----------------I-------------------------------------|
-----------------I-------------------------------------|
-6------(6)------I----6-6-6--9-----8----7--------------|
-4------(4)------I----4-4-4--7-----6----5--------------|


-------------------------------------------------------------|
-------------------------------------------------------------|
-------------------------------------------------------------|
-------------------------------------------------------------|
-------------------------------------------------------------|
-4--4-4-4-4-4-4-7--7-7-7-7-7-7-6--6-6-6-6-6-6-5--5-5-5-5-5-5-|


                                                          3x
------------------------------------------------------------|
------------------------------------------------------------|
------------------------------------------------------------|
------------------------------------------------6-----------|
------------------------------------------------4-----------|
-4--4-4-4-4-4-4-7--7-7-7-7-7-7-6--6-6-6-6-6-6---------------|


                                  2x
---------------------------------------|
---------------------------------------|
---------------------------------------|
-----7--6--4------------7--6--4--------|
-6---5--4--2----4-5-6---5--4--2--4-5---|
-4--------------2-3-4------------2-3---|

                                                      4x
----------------------------------------------------------|
----------------------------------------------------------|
----------------------------------------------------------|
--------7------6-----4--------------7------6-----4--------|
-6------5------4-----2---4-5-6------5------4-----2---4-5--|
-4--4-4----4-4---4-4-----2-3-4--4-4----4-4---4-4-----2-3--|

-----------------I--------------7----6----5------------|
-----------------I--------------7----6----5------------|
-----------------I-------------------------------------|
-----------------I-------------------------------------|
-6------(6)-6----I----6-6-6--9-----8----7--------------|
-4------(4)-4----I----4-4-4--7-----6----5--------------|

-------------------------------------------------------------|
-------------------------------------------------------------|
-------------------------------------------------------------|
-------------------------------------------------------------|
-------------------------------------------------------------|
-4--4-4-4-4-4-4-7--7-7-7-7-7-7-6--6-6-6-6-6-6-5--5-5-5-5-5-5-|


                                                          3x
------------------------------------------------------------|
------------------------------------------------------------|
------------------------------------------------------------|
------------------------------------------------6-----------|
------------------------------------------------4-----------|
-4--4-4-4-4-4-4-7--7-7-7-7-7-7-6--6-6-6-6-6-6---------------|


                                    2x
---------------------------------------|
---------------------------------------|
---------------------------------------|
-----7--6--4------------7--6--4--------|
-6---5--4--2----4-5-6---5--4--2--4-5---|
-4--------------2-3-4------------2-3---|

                                                       2x
-4---------------------------4----------------------------|
-4---------------------------4----------------------------|
----------------------------------------------------------|
-6---------------------------6----------------------------|
-6---------------------------6----------------------------|
-4--4-4-4-4-4-4-4-4-4-4-4-4--4--4-4-4-4-4-4-4-4-4-4-4-4---|


                                    2x
---------------------------------------|
---------------------------------------|
---------------------------------------|
-----7--6--4------------7--6--4--------|
-6---5--4--2----4-5-6---5--4--2--4-5---|
-4--------------2-3-4------------2-3---|

------------------------------------------------------------|
------------------------------------------------------------|
------------------------------------------------------------|
------------------------------------------------------------|
-6--------------------------7-7-6---------------------------|
-4--4-4-4-4-4-4-4-4-4-4-4-4-5-5-4-4-4-4-4-4-4-4-4-4-4-4-4---|


------------------------------------------------------------|
------------------------------------------------------------|
------------------------------------------------------------|
------------------------------------------------------------|
-9-7-6----------------------7-7-6---6----(6)------(6)-------|
-7-5-4--4-4-4-4-4-4-4-4-4-4-5-5-4---4----(4)------(4)-------|
Suggest correction new What's this?
You can suggest a correction to this tab. Community and Mods will review your correction and vote to approve or reject it.
comments
print report bad tab
2 comments total.
0 reply
nuclearrootbeer 133 wrote on September 1 2010, 11:40 am

ok tab but wtf at the part right after the intro, also the 444444777777776666665555 riff sounds better as power chords

0 reply
eddiehell 395 wrote on July 16 2011, 12:06 pm

it's ok, and yes, nuclear is right
power chord it....
I've seen DRI live twice, second time i stood right next to Spike and watched every song note for note.
Solo is basically pentatonic runs/bends.

guest
You may want to rate the tab now too:
select rating
Please do not post tabs as comments. Select "correction" instead!