Oops, an error
Loading. Please wait.

The Five Year Plan Tab

836 views 3 this week
no commentswrite comment
1 2 3 4 5
please rate
add to favorites
launch autoscroll
font size
0
reset
how to read this tab
guitar tuner
Autoscroll
slow
fast
+/-
esc
set tempo
stop
Help us to improve Ultimate-Guitar.com Take our survey!
×
Author
Difficulty
intermediate
-------------------------------------------------------------------------------
                             The Five Year Plan - Dirty Rotten Imbeciles
-------------------------------------------------------------------------------
Tabbed by: Joe Crowder
E-mail: samuraibebop121@gmail.com

Tuning: Standard

This is my first tab and it seems accurate. Listen to the song for timing

Intro x4
e|-----------------------------------------------------------------------------------|
B|-----------------------------------------------------------------------------------|
G|-----------------------------------------------------------------------------------|
D|-----------------------------------------------------------------------------------|
A|-----8-7--10-8----8-7----7-8-------------------------------------------------------|
E|--00----00-----00------00----------------------------------------------------------|

Intro 1B x8                                   Intro 1C 2nd 4th 6th and 8th time
e|---------------------------------------|------------------------------------------|
B|---------------------------------------|------------------------------------------|
G|---------------------------------------|------------------------------------------|
D|----10\9--12\10--10\9---9/10--|---10\9--12\10---10/9------------------------------|
A|-----8\7---10\8----8\7----7/8----|----8\7--10\8------8/7-----9--------------------|
E|--00----00------00-----00---------|-00----00--------00-----00-7-------------------|

Breakdown 1A                                      Breakdown 1B (end of song)
e|---------------------------------------------|---------------------------------------|
B|---------------------------------------------|---------------------------------------|
G|---------------------------------------------|---------------------------------------|
D|---------------------------------------------|---------------------------------------|
A|---------------------------------------------|--2------------------------------------|
E|--0-2-3-0-2-3-3/6~----0-2-3-0-2-3-|--0-----------------------------------------------|

Riff 1A x7/Thrashing part. Something like this
e|------------------------------------------------------------------------------------|
B|------------------------------------------------------------------------------------|
G|------------------------------------------------------------------------------------|
D|------------------------------------------------------------------------------------|
A|--2222--2222--2222--3-3-------------------------------------------------------------|
E|--0000--0000--0000--1-1-------------------------------------------------------------|

Riff 1A last time
e|--------------------------------------------------------------------------------|
B|--------------------------------------------------------------------------------|
G|--------------------------------------------------------------------------------|
D|--------------------------------------------------------------------------------|
A|-3-4----------------------------------------------------------------------------|
E|-1-2----------------------------------------------------------------------------|

Riff 2 x2 Listen to song                                             last time
e|---------------------------------------------------------|-------------------------|
B|---------------------------------------------------------|-------------------------|
G|---------------------------------------------------------|-------------------------|
D|----5555555555555555--4444444444444---|-3-2----------------------------------------|
A|----3333333333333333--2222222222222---|-1-0----------------------------------------|
E|----------------------------------------------------------|------------------------|

Riff 1A x7
Riff 1A Last time

Riff 3 Listen to song
e|----------------------------------------------------------------------------------|
B|----------------------------------------------------------------------------------|
G|----------------------------------------------------------------------------------|
D|----------------------------------------------------------------------------------|
A|----------------------------------------------------------------------------------|
E|---333333-444444-111111-333333-111111-666666--------------------------------------|

Riff 3 Cont.
e|----------------------------------------------------------------------------------|
B|----------------------------------------------------------------------------------|
G|----------------------------------------------------------------------------------|
D|----------------------------------------------------------------------------------|
A|------------------------------------------------------------8-7-------------------|
E|---333333-444444-111111-333333-111111---6-5---------------------------------------|

Riff 1A x3
Riff 1A Last Time
Riff 2 x1
Riff 1A x3
Riff 1A last time
Riff 3 x1
Riff 1A x3

Riff 1B                                  Hold
e|------------------------------------------------------------------------------------|
B|------------------------------------------------------------------------------------|
G|------------------------------------------------------------------------------------|
D|------------------------------------------------------------------------------------|
A|-2222-2222-2222--3-3--2----------2--------------------------------------------------|
E|-0000-0000-0000--1-1--0----------0--------------------------------------------------|
No Solo :(
Over solo Riff 1A x4

Riff 5 x4
e|------------------------------------------------------------------------------------|
B|------------------------------------------------------------------------------------|
G|------------------------------------------------------------------------------------|
D|-------------------------3-3--------------------------------------------------------|
A|--0000-0000-0000-1-1----------------------------------------------------------------|
E|------------------------------------------------------------------------------------|

Riff 1A x3
Riff 1A last time
Riff 3
Riff 1A x3
Riff 1B dont play the last chord
Intro 1B for the rest of the song
Intro 1C
Breakdown 1A
Breakdown 1B

Thats The Five Year Plan any correction if any are welcomed

Thrash Till Deth
************************************

| /   slide up
| \   slide down
| h   hammer-on
| p   pull-off
| ~   vibrato
| +   harmonic
| x   Mute note
| b   Bend
| pb  Pre-bend
| br  Bend release
| pbr Pre-bend release
| brb Bend release bend

************************************
Suggest correction
Give kudos to tab author, rate the tab!
1 2 3 4 5
comments
print report bad tab
guest
You may want to rate the tab now too:
select rating
Wanna post a correction for this tab? Suggest correction