Oops, an error
Loading. Please wait.

Violent Pacification Tab

version 1
version 1

Whole song

Interactive

1,427 views 6 this week
no commentswrite comment
1 2 3 4 5
please rate
add to favorites
launch autoscroll
font size
0
reset
how to read this tab
guitar tuner
Tab Pro tools
  • play this tab
  • loop segment
  • change instrument
  • show fretboard
  • metronome
×
Best way to learn
"Violent Pacification"
Autoscroll
slow
fast
+/-
esc
set tempo
stop
Contributor
Difficulty
novice
Band:  DRI
Album: Dirty Rotten LP
Song:  Violent Pacification

Copyright (c)  (Roudrunner) (1988)
Version 1.0 - (01/04/06)



.  - palm mute           /  - slide up to
\  - slide down to       ~  - vibrato
h  - hammer on           b  - Bend
p  - pull off            Suffixes for bend
t  - tap                 f  - full bend    h - half bend
ph - pinched harmonic    q  - quarter bend t - tap bend
*  - see comment         ^  - Hold bend    r release bend
x  - Stuccatto           ~  - vibrato bend
,  - slight palm mute    () - ghost note, sustained note
"  - tremolo note        <> - Trill

Tunning E A D G B E
 
 Bass on own


E-------------|
B-------------|
G-5-----------|
D-5-----------|
A-3-----------|
E-3-----------| Rpt

 Main Riff

E--------------------|
B--------------------|
G-5-5--7/8--5-5--2-3-|
D-5-5--7/8--5-5--2-3-|
A-3-3--5/6--3-3--0-1-|
E--------------------| Rpt 4 X

 Chorus

E--------------------------------------------------------------|
B--------------------------------------------------------------|
G--------------------------------------------------------------|
D---------------------------------2-2-2-2-2-2-2-2-3-3-3--3--3--|
A-2-2-2-2-2-2-2-2-3-3-3-3-3-3-3-3-0-0-0-0-0-0-0-0-1-1-1--1--1--|
E-0-0-0-0-0-0-0-0-1-1-1-1-1-1-1-1------------------------------|
                                                       pick scrapes
E--------------------------------------------------------------|
B--------------------------------------------------------------|
G--------------------------------------------------------------|
D---------------------------------2-2-2-2-2-2-2-2-3-3-3-\-\-\--|
A-2-2-2-2-2-2-2-2-3-3-3-3-3-3-3-3-0-0-0-0-0-0-0-0-1-1-1--\-\-\-|
E-0-0-0-0-0-0-0-0-1-1-1-1-1-1-1-1------------------------------|

E---------------------------------------------------------------|
B---------------------------------------------------------------|
G-5-5/8\5-6-6-6-6-7-7-7-7-8-8-8-8-9-9-9-9-101010101111111112\---|
D-5-5/8\5-6-6-6-6-7-7-7-7-8-8-8-8-9-9-9-9-101010101111111112\---|
A-3-3/6\3-4-4-4-4-5-5-5-5-6-6-6-6-7-7-7-7-8-8-8-8-9-9-9-9-10\---|
E---------------------------------------------------------------|

 Rpt Verse
 Rpt Chorus

E-------------------------------------------------------------------|
B-------------------------------------------------------------------|
G-12121212\11111111101010109-9-9-9\8-8-8-8\7-7-7-7\6-6-6-6\5-5-5-5\-|
D-12121212\11111111101010109-9-9-9\8-8-8-8\7-7-7-7\6-6-6-6\5-5-5-5\-|
A-10101010\9-9-9-9\8-8-8-8\7-7-7-7\6-6-6-6\5-5-5-5\4-4-4-4\3-3-3-3\-|
E-------------------------------------------------------------------|

E-------------------------------------------------------------------|
B-------------------------------------------------------------------|
G-4---------------------------(4)-----------------------------------|
D-4---------------------------(4)-----------------------------------|
A-2---------------------------(2)---------------------------------\-|
E-----------------------------------------------------------------\-|
            [---------PM---------]
E-----------------------------------------|
B-----------------------------------------|
G---------------------------------9-9-9-9-|
D---------------------------------9-9-9-9-|
A-5-5/7-7/9-9-9-9-9-9-9-9-9-9-9-9-7-7-7-7-|
E-3-3/5-5/7-7-7-7-7-7-7-7-7-7-7-7---------|

  [---------PM---------]
E----------------------------------|
B----------------------------------|
G----------------------------------|
D----------------------------------|
A-9-9-9-9-9-9-9-9-9-9-9\5-5/7-7/9--|
E-7-7-7-7-7-7-7-7-7-7-7\3-3/5-5/7--|

 [---------PM---------]
E-------------------------------|
B-------------------------------|
G-----------------------9-9-9-9-|
D-----------------------9-9-9-9-|
A-9-9-9-9-9-9-9-9-9-9-9-7-7-7-7-|
E-7-7-7-7-7-7-7-7-7-7-7---------|

E------------------------------------------------------------------|
B------------------------------------------------------------------|
G----------------------------------7--7-7-7-7-7-7-7-7-7-7-7\6-6\5\-|
D-10101010101010101010101010101010-7--7-7-7-7-7-7-7-7-7-7-7\6-6\5\-|
A-10101010101010101010101010101010-5--5-5-5-5-5-5-5-5-5-5-5\4-4\3\-|
E-8-8-8-8-8-8-8-8-8-8-8-8-8-8-8-8----------------------------------|

  [---------PM---------]
E----------------------------------|
B----------------------------------|
G----------------------------------|
D-----------------------7----------|
A-9-9-9-9-9-9-9-9-9-9-9\5-5/7-7/9--|
E-7-7-7-7-7-7-7-7-7-7-7---3/5-5/7--|

 [---------PM---------]
E-------------------------------|
B-------------------------------|
G-----------------------9-9-9-9-|
D-----------------------9-9-9-9-|
A-9-9-9-9-9-9-9-9-9-9-9-7-7-7-7-|
E-7-7-7-7-7-7-7-7-7-7-7---------|

  [---------PM---------]
E----------------------------------|
B----------------------------------|
G----------------------------------|
D-----------------------7----------|
A-9-9-9-9-9-9-9-9-9-9-9\5-5/7-7/9--|
E-7-7-7-7-7-7-7-7-7-7-7---3/5-5/7--|

 [---------PM---------]
E-------------------------------|
B-------------------------------|
G-----------------------9-9-9-9-|
D-----------------------9-9-9-9-|
A-9-9-9-9-9-9-9-9-9-9-9-7-7-7-7-|
E-7-7-7-7-7-7-7-7-7-7-7---------|

E------------------------------------------------------------------|
B------------------------------------------------------------------|
G----------------------------------7--7-7-7-7-7-7-7-7-7-7-7\6-6\5\-|
D-10101010101010101010101010101010-7--7-7-7-7-7-7-7-7-7-7-7\6-6\5\-|
A-10101010101010101010101010101010-5--5-5-5-5-5-5-5-5-5-5-5\4-4\3\-|
E-8-8-8-8-8-8-8-8-8-8-8-8-8-8-8-8----------------------------------|

 Drums and vocals alone
 Bass enters

 Clean guitar

E---------------------------------------------------------------------|
B---------------------------------------------------------------------|
G---------------------------------------------------------------------|
D---------------------------------------------------------------------|
A----------------------------------0------(0)------1--------(1)-------|
E-0------(0)------1------(1)------------------------------------------|

 Distorted guitar

E---------------------------------------------------------------------|
B---------------------------------------------------------------------|
G---------------------------------------------------------------------|
D---------------------------------------------------------------------|
A----------------------------------0------(0)------1--------(1)-------|
E-0------(0)------1------(1)------------------------------------------|

 Rpt

 [---------------------------PM-------------------------------]
E----------------------------------------------------------------|
B----------------------------------------------------------------|
G----------------------------------------------------------------|
D---------------------------------2-2-2-2-2-2-2-2-3-3-3-3-3-3-3--|
A-2-2-2-2-2-2-2-2-3-3-3-3-3-3-3-3-0-0-0-0-0-0-0-0-1-1-1-1-1-1-1--|
E-0-0-0-0-0-0-0-0-1-1-1-1-1-1-1-1--------------------------------| Rpt

E----------------------------------------------------------------|
B----------------------------------------------------------------|
G----------------------------------------------------------------|
D---------------------------------2-2-2-2-2-2-2-2-3-3-3-3-3-3-3--|
A-2-2-2-2-2-2-2-2-3-3-3-3-3-3-3-3-0-0-0-0-0-0-0-0-1-1-1-1-1-1-1--|
E-0-0-0-0-0-0-0-0-1-1-1-1-1-1-1-1--------------------------------|

 Rpt 3 X gradually increasing tempo

                                                       pick scrapes
E--------------------------------------------------------------|
B--------------------------------------------------------------|
G--------------------------------------------------------------|
D---------------------------------2-2-2-2-2-x-x-x-3-x-x-\-\-\--|
A-2-2-2-2-2-2-2-2-3-3-3-3-3-3-3-3-0-0-0-0-0-x-x-x-1-x-x--\-\-\-|
E-0-0-0-0-0-0-0-0-1-1-1-1-1-1-1-1------------------------------|

E------------------------------------------------------------|
B------------------------------------------------------------|
G-5-5/8\5-6-6-6-6-7-7-7-7-8-8-8-8-9-9-9-9-101010101111111112-|
D-5-5/8\5-6-6-6-6-7-7-7-7-8-8-8-8-9-9-9-9-101010101111111112-|
A-3-3/6\3-4-4-4-4-5-5-5-5-6-6-6-6-7-7-7-7-8-8-8-8-9-9-9-9-10-|
E------------------------------------------------------------|



END

comments
We did not receive enough feedback on this tab! Please rate:
print report bad tab
1 2 3 4 5
I want to post or [tab]
guest
You may want to rate the tab now too:
select rating
Please do not post tabs as comments. Select "correction" instead!