Oops, an error
Loading. Please wait.

After The World tab

version 2
version 2

Whole song

6,272 views 1 this week
no commentswrite comment
1 2 3 4 5
x 4
add to favorites
×
Save as Personal and add changes to this tab that will be seen only by you. Learn more ›
×
You can save this tab as Personal to edit and correct it or add notes. All changes will be seen only by you. Learn more »
launch autoscroll
font size
0
reset
how to read this tab
guitar tuner
edit
Autoscroll
slow
fast
+/-
esc
set tempo
stop
Difficulty
intermediate
----------------------------------------------------------------------------
                             After the world- Disciple
----------------------------------------------------------------------------
Tabbed by:Jake B
Email:Jake3493@hotmail.com

Hey, this is my first tab, but i know its about 90% correct. I have tried playing the 
tabs for this song but they just dont seem right. if you have any questions, or comments, 
to me on AIM: NormaJake34 or just email me. Disciple is Amazing!

Tuning:Standard
       (0:00-0:37)
e|---------------------------------------------------------------------------|
B|---------------2-2-2--2-2--------------------------------------------------|
G|-6-6--6--4-4-4-2-2-2--2-2-----------repeat 6x------------------------------|
D|-6-6--6--4-4-4-2-2-2--2-2--------------------------------------------------|
A|-4-4--4--2-2-2-------------------------------------------------------------|
E|---------------------------------------------------------------------------|
You break the glass, try to hide your face
Recorded lines that just will not erase
And buried in your loss of innocence
You wonder if you'll find it again

Was I there for the worst of all your pain?
And was I there when your blue skies ran away?
      (0:38-0:52)
e|--------------------------------------------------------------------------|
B|---------------(2)--------------------------------------------------------|
G|-6-6--6--4-4-4-(2)-(16x)--------------------------------------------------|
D|-6-6--6--4-4-4-(2)--------------------------------------------------------|
A|-4-4--4--2-2-2------------------------------------------------------------|
E|--------------------------------------------------------------------------|
Was I there when the rains were flooding you off your feet?
Those were My tears falling down for you, falling down for you
     (0:53-1:18)
e|-2------0------0------0---------------------------------------------------|
B|-3-(8x)-2------3-(8x)-2---------------------------------------------------|
G|-2------2-(8x)-2------2-(8x)---repeat 2x----------------------------------|
D|-0------2------0------2---------------------------------------------------|
A|-0------0------0------0---------------------------------------------------|
E|-0------0------0------0---------------------------------------------------|
I'm the One that you've been looking for
I'm the One that you've been waiting for
I've had My eyes on you ever since you were born
I will love you after the rain falls down
I will love you after the sun goes out
I'll have My eyes on you after the world is no more
     (1:19-1:35)
e|--------------------------------------------------------------------------|
B|---------------2-2-2--2-2-------------------------------------------------|
G|-6-6--6--4-4-4-2-2-2--2-2--repeat 3x--------------------------------------|
D|-6-6--6--4-4-4-2-2-2--2-2-------------------------------------------------|
A|-4-4--4--2-2-2------------------------------------------------------------|
E|--------------------------------------------------------------------------|
Did I arrange the light of your first day?
Did I create the rhythm your heart makes?
Could you believe when your candle starts to fade?
     (1:36-1:45)
e|--------------------------------------------------------------------------|
B|---------------(2)--------------------------------------------------------|
G|-6-6--6--4-4-4-(2)-(16x)--------------------------------------------------|
D|-6-6--6--4-4-4-(2)--------------------------------------------------------|
A|-4-4--4--2-2-2------------------------------------------------------------|
E|--------------------------------------------------------------------------|
I want to be the One that you believe
Could take it all away, take your heart away
     (1:46-2:11)
e|-2------0------0------0---------------------------------------------------|
B|-3-(8x)-2------3-(8x)-2---------------------------------------------------|
G|-2------2-(8x)-2------2-(8x)---repeat 2x----------------------------------|
D|-0------2------0------2---------------------------------------------------|
A|-0------0------0------0---------------------------------------------------|
E|-0------0------0------0---------------------------------------------------|
I'm the One that you've been looking for
I'm the One that you've been waiting for
I've had My eyes on you ever since you were born
I will love you after the rain falls down
I will love you after the sun goes out
I'll have My eyes on you after the world is no more

**these are the chords for the bridge but i couldnt figure the strumming out**
     (2:12-2:36)
e|---------------------------------------------------------------------------|
B|-------2--1----------------------------------------------------------------|
G|-6--4--2--0--repeat 2x-----------------------------------------------------|
D|-6--4--2--2----------------------------------------------------------------|
A|-4--2-----3----------------------------------------------------------------|
E|---------------------------------------------------------------------------|
Isn't My life a clear sign since I have crossed over this chasm
To fill the space between Me and you?
And I will do it all over again
Just look for Me, just wait for Me
    (2:37-2:49)
e|-2------0------0------0---------------------------------------------------|
B|-3-(8x)-2------3-(8x)-2---------------------------------------------------|
G|-2------2-(8x)-2------2-(8x)---repeat 2x----------------------------------|
D|-0------2------0------2---------------------------------------------------|
A|-0------0------0------0---------------------------------------------------|
E|-0------0------0------0---------------------------------------------------|
The One you've been looking for
The One you've been waiting for
You won't have to look anymore
   (2:50-3:14)
e|-2------0------0------0---------------------------------------------------|
B|-3-(8x)-2------3-(8x)-2---------------------------------------------------|
G|-2------2-(8x)-2------2-(8x)---repeat 2x----------------------------------|
D|-0------2------0------2---------------------------------------------------|
A|-0------0------0------0---------------------------------------------------|
E|-0------0------0------0---------------------------------------------------|
I'm the One that you've been looking for
I'm the One that you've been waiting for
I've had My eyes on you ever since you were born
I will love you after the rain falls down
I will love you after the sun goes out
I'll have My eyes on you after the world is no more
     (3:15-3:20)
e|-0-0--0-0--0-0------------------------------------------------------------|
B|-2-2--2-2--2-2------------------------------------------------------------|
G|-2-2--2-2--2-2------------------------------------------------------------|
D|-2-2--2-2--2-2------------------------------------------------------------|
A|-0-0--0-0--0-0------------------------------------------------------------|
E|-0-0--0-0--0-0------------------------------------------------------------|
     (3:21-3:36)
e|-2------0----------------------------------------------------------------|
B|-3-(8x)-2----------------------------------------------------------------|
G|-2------2-(8x)-Let Ring--------------------------------------------------|
D|-0------2----------------------------------------------------------------|
A|-0------0----------------------------------------------------------------|
E|-0------0----------------------------------------------------------------|
The One you've been looking for
The One you've been waiting for

| /  slide up
| \  slide down
| h  hammer-on
| p  pull-off
| ~  vibrato
| +  harmonic
| x  Mute note
===============================================================================

            
            
Suggest correction
Creating personal tab
Creating personal tab
You can edit any tab online and save it as your Personal.

You can edit, replace or remove any tab part or add personal notes – all changes will be seen only by you.

Personal tabs can be accessed anytime from any device, even offline.
Learn more »
comments
print report bad tab
guest
Wanna post a correction for this tab? Suggest correction