Oops, an error
Loading. Please wait.

Purpose To Melody intro tab

version 1
version 1

Intro

Whole song

1,024 views 1 this week
1 commentread comment
1 2 3 4 5
2 more votes to show rating
add to favorites
×
Save as Personal and add changes to this tab that will be seen only by you. Learn more ›
×
You can save this tab as Personal to edit and correct it or add notes. All changes will be seen only by you. Learn more »
launch autoscroll
font size
0
reset
how to read this tab
guitar tuner
edit
Autoscroll
slow
fast
+/-
esc
set tempo
stop
Hecka Easy intro, 1st time just guitar a little quieter, then another time louder with the whole band

E:------------------------------------------------------------|
B:---------------------------0-0-0-0--------------------------|
G:-----3-3-3-3----2-2-2-2-------------------------------------|
D:-32-0-0-0-0-32-0-0-0-0-32-0-0-0-0--000----------000-------0-|
A:---3----------3----------3---------000----------000-------0-|
D:-----------------------------------000-10-10-10-000-8-8-8-0-|
                                     ***          ***       *

Then you can figure out the verse pretty easy its just the D open pwrchord palm muted, 
rythym is up to you to listen to, and the pre-chorus is the same as the intro...haven't 
the "I feel like somethin's bustin part" yet, but it sounds pretty easy

            
            
Suggest correction
Creating personal tab
Creating personal tab
You can edit any tab online and save it as your Personal.

You can edit, replace or remove any tab part or add personal notes – all changes will be seen only by you.

Personal tabs can be accessed anytime from any device, even offline.
Learn more »
Give kudos to tab author, rate the tab!
1 2 3 4 5
comments
print report bad tab
1 comment total.
0 reply
softball1230 280 Oct 03, 2008 05:25 PM

I think it should go like this:
E:------------------------------------------------------------|
B:------------------------------------------------------------|
G:-----2-2-2-2----1-1-1-1----3-3-3-3--------------------------|
D:-32-0-0-0-0-32-0-0-0-0-32-0-0-0-0--000----------000-------0-|
A:---3----------3----------3---------000----------000-------0-|
D:-----------------------------------000-10-10-10-000-8-8-8-0-|
*** *** *

guest
Wanna post a correction for this tab? Suggest correction