Oops, an error
Loading. Please wait.

White Noise Bass Tab

version 1
version 1

Whole song

7,683 views 18 this week
1 commentread comment
1 2 3 4 5
x 3
add to favorites
launch autoscroll
font size
0
reset
guitar tuner
Autoscroll
slow
fast
+/-
esc
set tempo
stop
Help us to improve Ultimate-Guitar.com Take our survey!
×
Author
---- I DO NOT OWN THE RIGHTS TO THIS SONG----

I did some searching on the internet and couldn't find any good tabs for the main tune, 
so I had a crack at it and this is what I got. This is my first tab, so excuse any small 
mistakes in the written representation.

I have tabbed it as if it is being played on open strings, but it's pretty simple to 
transpose up to find the right key.

Intro/ 1st verse:

G|------------------------|---------------------0h2|
D|-----------0h2----------|-----------0h2-----2----| X6
A|-00-0-0h2h3-----2-2-----|-00-0-0h2h3-----22------|
E|--------------00---3-3-3|--------------00--3-3---|

1st Bridge:

G|-----------------------|
D|-----------------------| X7
A|-00-0-0h2h3-0h2h3------|
E|-----------3-----3-1-00|

Chorus- 2nd Verse:

G|------------------------|---------------------0h2|
D|-----------0h2----------|-----------0h2-----2----| X8
A|-00-0-0h2h3-----2-2-----|-00-0-0h2h3-----22------|
E|--------------00---3-3-3|--------------00--3-3---|

2nd Bridge:

G|-----------------------|
D|-----------------------| X8
A|-00-0-0h2h3-0h2h3------|
E|-----------3-----3-1-00|

Basically, you get the idea.

If you want to transpose it up to something like the 5th fret, both parts would look 
like this:

Main Theme:

G|------------------------|---------------------5h7|
D|-----------5h7----------|-----------5h7-----7----|
A|-55-5-5h7h8-----7-7-----|-55-5-5h7h8-----77------|
E|--------------55---8-8-8|--------------55--8-8---|

Bridge:

G|-----------------------|
D|-----------------------| X8
A|-55-5-5h7h8-5h7h8------|
E|-----------8-----8-6-55|
Suggest correction
Give kudos to tab author, rate the tab!
1 2 3 4 5
comments
print report bad tab
1 comment total.
0 reply
laurenmz 426 May 15, 2014 02:34 PM

Notes are right, I think if you want to play it with the album version it's half a step up from this! Nice job.

guest
You may want to rate the tab now too:
select rating
Wanna post a correction for this tab? Suggest correction