Oops, an error
Loading. Please wait.

Sleep On The Wheel bass

64 views 1 this week
no commentswrite comment
1 2 3 4 5
3 more votes to show rating
add to favorites
×
Save as Personal and add changes to this tab that will be seen only by you. Learn more ›
×
You can save this tab as Personal to edit and correct it or add notes. All changes will be seen only by you. Learn more »
launch autoscroll
font size
0
reset
guitar tuner
edit
Autoscroll
slow
fast
+/-
esc
set tempo
stop
Author
Difficulty
This is my 2nd tab and I'm not that experct, so if you find any errors or you have 
something to say, please leave how many comments you want.

This is one of my favorite songs of them and it inspired me for my final exams at 
high school. This band is everything to me.

Let's go with the tab

intro + verse (0:12 -> 0:57) basically you have to play it 6 times
G |----------------------------------------------------------------|
D |---3-3-3-3-3-3-3-3-3-3-3-3-3--6-6-6-6-6-6-6-6-------------------|
A |-----------------------------------------------4-4-4-4-4-4-4-4--|
D |----------------------------------------------------------------|

pre-chorus (0:58) follow the drums
G |--------------------------------------------------------------|
D |--------------------------------------------------------------|
A |---6-6-6-6-6-6-6-6-6-6-6-6-6----4-4-4-4-4-4-4-4-4-4-4-4-4-----|
D |--------------------------------------------------------------|

G |-------------------------------------------------------------------|
D |-------------------------------------------------------------------|
A |-6-6-6-6-6-6-6-6-6-6-6-6-6--10-10-10-10-10-10-10-10-10-10-10-10-10-|
D |-------------------------------------------------------------------|

chorus (1:14) play this 4 times
G |----------------------------------------------------------------|
D |---3-3-3-3-3-3-3-3-3-3-3-3-3--6-6-6-6-6-6-6-6-------------------|
A |-----------------------------------------------4-4-4-4-4-4-4-4--|
D |----------------------------------------------------------------|

now play this soon after the chorus (it's the guitar part but you can play with your bass)
G |--------------------------------------------|
D |-3let ring----5-6let ring------11let ring---|
A |--------------------------------------------|
D |--------------------------------------------|

G |--------------------------------------------|
D |-3let ring----8-6let ring------11-10-8-3----|
A |--------------------------------------------|
D |--------------------------------------------|

verse (2:02 -> 2:30)
G |----------------------------------------------------------------|
D |---3-3-3-3-3-3-3-3-3-3-3-3-3--6-6-6-6-6-6-6-6-------------------|
A |-----------------------------------------------4-4-4-4-4-4-4-4--|
D |----------------------------------------------------------------|

pre-chorus (2:31) follow the drums
G |--------------------------------------------------------------|
D |--------------------------------------------------------------|
A |---6-6-6-6-6-6-6-6-6-6-6-6-6----4-4-4-4-4-4-4-4-4-4-4-4-4-----|
D |--------------------------------------------------------------|

G |-------------------------------------------------------------------|
D |-------------------------------------------------------------------|
A |-6-6-6-6-6-6-6-6-6-6-6-6-6--10-10-10-10-10-10-10-10-10-10-10-10-10-|
D |-------------------------------------------------------------------|

chorus (2:47) + guitar solo (3:17)
G |----------------------------------------------------------------|
D |---3-3-3-3-3-3-3-3-3-3-3-3-3--6-6-6-6-6-6-6-6-------------------|
A |-----------------------------------------------4-4-4-4-4-4-4-4--|
D |----------------------------------------------------------------|

pre-chorus (3:33) follow the drums
G |--------------------------------------------------------------|
D |--------------------------------------------------------------|
A |---6-6-6-6-6-6-6-6-6-6-6-6-6----4-4-4-4-4-4-4-4-4-4-4-4-4-----|
D |--------------------------------------------------------------|

G |-------------------------------------------------------------------|
D |-------------------------------------------------------------------|
A |-6-6-6-6-6-6-6-6-6-6-6-6-6--10-10-10-10-10-10-10-10-10-10-10-10-10-|
D |-------------------------------------------------------------------|

3:49 be careful here
G |-----------------------------------------------------|
D |--13-13-13-13-13-13-11--10-10---10-11-13-11-10-11----|
A |--------------------------------------------------8--|
D |-----------------------------------------------------|

G |-----------------------------------------------------|
D |--13-13-13-13-13-13-11--10-10---10-11-13-11-10-10-11-|
A |-----------------------------------------------------|
D |-----------------------------------------------------|

4:04 "and then I nearly slept on the wheel..."
G |-------------------------------------------------------|
D |--3let ring-------------6let ring----------------------|
A |-----------------------------------------4let ring-----|
D |-------------------------------------------------------| play 2 times

OUTRO 4:19
G |-----------------------------------------------------------------|
D |-----------------------------------------------------------------|
A |-----------------------------------------------------------------|
D |-3-3-3-3-3-3-3-3-3-3-5-5-6-6-6-6-6-6-6-6-11-11-11-11-11-11-11-11-|

4:43
G |--------------------------------------------|
D |-3let ring----5-6let ring------11let ring---|
A |--------------------------------------------|
D |--------------------------------------------| play 2 times


*the end*
Suggest correction
Creating personal tab
Creating personal tab
You can edit any tab online and save it as your Personal.

You can edit, replace or remove any tab part or add personal notes – all changes will be seen only by you.

Personal tabs can be accessed anytime from any device, even offline.
Learn more »
Give kudos to tab author, rate the tab!
1 2 3 4 5
comments
print report bad tab
guest
You may want to rate the tab now too:
select rating
Wanna post a correction for this tab? Suggest correction