Oops, an error
Loading. Please wait.

We Might Fall Apart tab

version 1
version 1

Whole song

Interactive

5,758 views 3 this week
no commentswrite comment
1 2 3 4 5
x 8
add to favorites
×
Save as Personal and add changes to this tab that will be seen only by you. Learn more ›
×
You can save this tab as Personal to edit and correct it or add notes. All changes will be seen only by you. Learn more »
launch autoscroll
font size
0
reset
how to read this tab
guitar tuner
edit
Autoscroll
slow
fast
+/-
esc
set tempo
stop
Author
                        DISCO ENSEMBLE: WE MIGHT FALL APART

tuning: DADGBE

Intro/chorus
------------------------|------------------------|------------------------|------------------------|
------------------------|------------------------|7--7--7-----7--7-----9--|---9--9-----9--9--9-----|
8--8--8--8--8--8--8--8--|8--8--8--8--8--8--8--8--|------------------------|------------------------|
8--8--8-----8--8-----8--|---8--8-----8--8--8-----|8--8--8--8--8--8--8--8--|8--8--8--8--8--8--8--8--|
6--6--6--6--6--6--6--6--|6--6--6--6--6--6--6--6--|6--6--6--6--6--6--6--6--|6--6--6--6--6--6--6--6--|
------------------------|------------------------|------------------------|------------------------|

------------------------|------------------------|------------------------|------------------------|
------------------------|------------------------|------------------------|------------------------|
------------------------|------------------------|8--8--8-----8--8-----10-|---10-10----10-10-10----|
11-11-11----11-11----11-|---11-11----11-11-11----|------------------------|------------------------|
8--8--8--8--8--8--8--8--|8--8--8--8--8--8--8--8--|8--8--8--8--8--8--8--8--|8--8--8--8--8--8--8--8--|
8--8--8--8--8--8--8--8--|8--8--8--8--8--8--8--8--|8--8--8--8--8--8--8--8--|8--8--8--8--8--8--8--8--|


Verse
------------------------|------------------------|------------------------|------------------------|
------------------------|------------------------|7--7--7-----7--7-----9--|---9--9-----9--9--9-----|
8--8--8-----8--8-----8--|---8--8-----8--8--8-----|6--6--6-----6--6-----6--|---6--6-----6--6--6-----|
8--8--8-----8--8-----8--|---8--8-----8--8--8-----|8--8--8-----8--8-----8--|---8--8-----8--8--8-----|
6--6--6-----6--6-----6--|---6--6-----6--6--6-----|6--6--6-----6--6-----6--|---6--6-----6--6--6-----|
------------------------|------------------------|------------------------|------------------------|

------------------------|------------------------|------------------------|------------------------|
------------------------|------------------------|------------------------|------------------------|
------------------------|------------------------|8--8--8-----8--8-----10-|---10-10----10-10-10----|
11-11-11----11-11----11-|---11-11----11-11-11----|------------------------|------------------------|
8--8--8-----8--8-----8--|---8--8-----8--8--8-----|8--8--8-----8--8-----8--|---8--8-----8--8--8-----|
8--8--8-----8--8-----8--|---8--8-----8--8--8-----|8--8--8-----8--8-----8--|---8--8-----8--8--8-----|

Pre-chorus
------------------------|------------------------|------------------------|------------------------|
------------------------|------------------------|------------------------|------------------------|
11-11-11-11-11-11-11-11-|11-11-11-11-11-11-11-11-|13-13-13-13-13-13-13-13-|13-13-13-13-13-13-13-13-|
------------------------|------------------------|------------------------|------------------------|
9--9--9--9--9--9--9--9--|9--9--9--9--9--9--9--9--|11-11-11-11-11-11-11-11-|11-11-11-11-11-11-11-11-|
------------------------|------------------------|------------------------|------------------------|

------------------------|------------------------|------------------------|------------------------|
------------------------|------------------------|------------------------|------------------------|
11-11-11-11-11-11-11-11-|11-11-11-11-11-11-11-11-|6--6--6--6--6--6--6--6--|6--6--6--6--6--6--------|
------------------------|------------------------|6--6--6--6--6--6--6--6--|6--6--6--6--6--6--------|
9--9--9--9--9--9--9--9--|9--9--9--9--9--9--9--9--|4--4--4--4--4--4--4--4--|4--4--4--4--4--4--------|
------------------------|------------------------|------------------------|------------------------|
                                                  PM__________________________________

Guitar solo
------------------------|------------------------|------------------------|------------------------|
19----------19----------|19----------19----------|21----------21----------|21----------21----------|
------17----------18----|------18----------18----|------18----------18----|------18----------18----|
---16----16----16----16-|---16----16----16----16-|---15----15----15----15-|---15----15----15----15-|
------------------------|------------------------|------------------------|------------------------|
------------------------|------------------------|------------------------|------------------------|

------------------------|------------------------|------------------------|------------------------|
------------------------|------------------------|------------------------|------------------------|
20----18----20----18----|20----18----20----18----|20-------18-------20----|---18-------18----18----|
---15----15----15----15-|---15----15----15----15-|---16-16----16-16----16-|16----16-16----16-------|
------------------------|------------------------|------------------------|------------------------|
------------------------|------------------------|------------------------|------------------------|


BRIDGE
------------------------|------------------------|------------------------|------------------------|
------------------------|------------------------|------------------------|------------------------|
------------------------|------------------------|------------------------|------------------------|
------------------------|------------------------|------------------------|------------------------|
------------------------|------------------------|------------------------|------------------------|
9--9--9--9--9--9--9--9--|9--9--9--9--9--9--9--9--|11-11-11-11-11-11-11-11-|11-11-11-11-11-11-11-11-|


------------------------|------------------------|------------------------|------------------------|
------------------------|------------------------|------------------------|------------------------|
------------------------|------------------------|------------------------|------------------------|
------------------------|------------------------|------------------------|------------------------|
------------------------|------------------------|------------------------|------------9--9--9--9--|
8--8--8--8--8--8--8--8--|8--8--8--8--8--8--8--8--|9--9--9--9--9--9--9--9--|9--9--9--9--------------|

------------------------|------------------------|------------------------|------------------------|
------------------------|------------------------|------------------------|------------------------|
------------------------|------------------------|------------------------|------------------------|
9--9--9--9--9--9--9--9--|9--9--9--9--9--9--9--9--|11-11-11-11-11-11-11-11-|11-11-11-11-11-11-11-11-|
9--9--9--9--9--9--9--9--|9--9--9--9--9--9--9--9--|11-11-11-11-11-11-11-11-|11-11-11-11-11-11-11-11-|
9--9--9--9--9--9--9--9--|9--9--9--9--9--9--9--9--|11-11-11-11-11-11-11-11-|11-11-11-11-11-11-11-11-|
PM___________________________________________     PM___________________________________________

------------------------|------------------------|------------------------|------------------------|
------------------------|------------------------|------------------------|------------------------|
------------------------|------------------------|------------------------|------------------------|
11-11-11-11-11-11-11-11-|11-11-11-11-11-11-11-11-|9--9--9--9--9--9--9--9--|9-/11-11-11-11-11-11-11-|
8--8--8--8--8--8--8--8--|8--8--8--8--8--8--8--8--|9--9--9--9--9--9--9--9--|9-/11-11-11-11-11-11-11-|
8--8--8--8--8--8--8--8--|8--8--8--8--8--8--8--8--|9--9--9--9--9--9--9--9--|9-/11-11-11-11-11-11-11-|
PM___________________________________________     ___________________________________


synth solo
------------------------|------------------------|------------------------|------------------------|
------------------------|------------------------|------------------------|------------------------|
------------------------|------------------------|------------------------|------------------------|
13--------\-------------|------------------------|------------------------|------------------------|
13--------\-------------|------------------------|------------------------|------------------------|
13--------\-------------|------------------------|------------------------|------------------------|


under synth solo
------------------------|------------------------|------------------------|------------------------|
------------------------|------------------------|7--7--7--7--7--7--7--7--|9--9--9--9--9--9--9--9--|
8--8--8--8--8--8--8--8--|8--8--8--8--8--8--8--8--|------------------------|------------------------|
8--8--8--8--8--8--8--8--|8--8--8--8--8--8--8--8--|8--8--8--8--8--8--8--8--|8--8--8--8--8--8--8--8--|
6--6--6--6--6--6--6--6--|6--6--6--6--6--6--6--6--|6--6--6--6--6--6--6--6--|6--6--6--6--6--6--6--6--|
------------------------|------------------------|------------------------|------------------------|
PM_________________________________________________________________________________________________

------------------------|------------------------|------------------------|------------------------|
------------------------|------------------------|------------------------|------------------------|
------------------------|------------------------|------------------------|------------------------|
11-11-11-11-11-11-11-11-|11-11-11-11-11-11-11-11-|8--8--8--8--8--8--8--8--|8-/11-11-11-11-11-11-11-|
8--8--8--8--8--8--8--8--|8--8--8--8--8--8--8--8--|8--8--8--8--8--8--8--8--|8-/11-11-11-11-11-11-11-|
8--8--8--8--8--8--8--8--|8--8--8--8--8--8--8--8--|8--8--8--8--8--8--8--8--|8-/11-11-11-11-11-11-11-|
PM_____________________________________________________________________________________

Start of last chorus
------------------------|------------------------|------------------------|------------------------|
------------------------|------------------------|------------------------|------------------------|
------------------------|------------------------|------------------------|------------------------|
13--------\-------------|------------------------|------------------------|------------------------|
13--------\-------------|------------------------|------------------------|------------------------|
13--------\-------------|------------------------|------------------------|------------------------|


------------------------|------------------------|------------------------|------------------------|
------------------------|------------------------|------------------------|------------------------|
------------------------|------------------------|8--8--8-----8--8-----10-|---10-10----10-10-10----|
11-11-11----11-11----11-|---11-11----11-11-11----|------------------------|------------------------|
8--8--8--8--8--8--8--8--|8--8--8--8--8--8--8--8--|8--8--8--8--8--8--8--8--|8--8--8--8--8--8--8--8--|
8--8--8--8--8--8--8--8--|8--8--8--8--8--8--8--8--|8--8--8--8--8--8--8--8--|8--8--8--8--8--8--8--8--|


OUTRO
------------------------|------------------------|------------------------|------------------------|
------------------------|------------------------|------------------------|------------------------|
11-11-11----11-11-11----|11-11-11----11-11-11----|13-13-13----13-13-13----|13-13-13----13-13-13----|
9--9--9-----9--9--9-----|9--9--9-----9--9--9-----|11-11-11----11-11-11----|11-11-11----11-11-11----|
------------------------|------------------------|------------------------|------------------------|
9--9--9-----9--9--9-----|9--9--9-----9--9--9-----|11-11-11----11-11-11----|11-11-11----11-11-11----|

------------------------|------------------------|------------------------|------------------------|
------------------------|------------------------|------------------------|------------------------|
10-10-10----10-10-10----|10-10-10----10-10-10----|11-11-11----11-11-11----|11-11-11----11-11-11----|
8--8--8-----8--8--8-----|8--8--8-----8--8--8-----|9--9--9-----9--9--9-----|9--9--9-----9--9--9-----|
------------------------|------------------------|------------------------|------------------------|
8--8--8-----8--8--8-----|8--8--8-----8--8--8-----|9--9--9-----9--9--9-----|9--9--9-----9--9--9-----|


------------------------|------------------------|------------------------|------------------------|
------------------------|------------------------|------------------------|------------------------|
11-11-11----11-11-11----|11-11-11----11-11-11----|13-13-13----13-13-13----|13-13-13----13-13-13----|
------9-----------9-----|------9-----------9-----|------11----------11----|------11----------11----|
------------------------|------------------------|------------------------|------------------------|
9--9--9-----9--9--9-----|9--9--9-----9--9--9-----|11-11-11----11-11-11----|11-11-11----11-11-11----|

------------------------|------------------------|------------------------|------------------------|
------------------------|------------------------|------------------------|------------------------|
10-10-10----10-10-10----|10-10-10----10-10-10----|11-11-11----11-11-11----|11/13-13-13-13-13-13-13-|
------8-----------8-----|------8-----------8-----|------9-----------9-----|9/11-11-11-11-11-11-11-|
------------------------|------------------------|------------------------|9/11-11-11-11-11-11-11-|
8--8--8-----8--8--8-----|8--8--8-----8--8--8-----|9--9--9-----9--9--9-----|9/11-11-11-11-11-11-11-|
                                                                           rit.

------------------------|
2-----------------------|
------------------------|
3-----------------------|
1-----------------------|
1-----------------------|

ENJOI!!
Fuckin amazing band!
If you get the chance, go see them!
Suggest correction
Creating personal tab
Creating personal tab
You can edit any tab online and save it as your Personal.

You can edit, replace or remove any tab part or add personal notes – all changes will be seen only by you.

Personal tabs can be accessed anytime from any device, even offline.
Learn more »
comments
print report bad tab
guest
You may want to rate the tab now too:
select rating
Wanna post a correction for this tab? Suggest correction