Oops, an error
Loading. Please wait.

Zombies bass

150 views 1 this week
1 commentread comment
1 2 3 4 5
2 more votes to show rating
add to favorites
×
Save as Personal and add changes to this tab that will be seen only by you. Learn more ›
×
You can save this tab as Personal to edit and correct it or add notes. All changes will be seen only by you. Learn more »
launch autoscroll
font size
0
reset
guitar tuner
edit
Autoscroll
slow
fast
+/-
esc
set tempo
stop
Author
Difficulty
-------------------------------------------------------------------------------
                             ZOMBIES - Disco Ensemble
-------------------------------------------------------------------------------
Tabbed by: Joe Owens
E-mail: joeowens994@hotmail.com
Tuning:EADG
Video: http://www.youtube.com/watch?v=ZfD_OqmQc9s

This song is fairly straightforward and I'm fairly sure I've done a
good job on this one. It's a lot of fun to play with the song.


Verse 1:

G|----------------------------|----------------------------|
D|----------------------------|----------------------------|
A|-5--5-5-5-5-5--5-5-5-5-5----|----------------------------|
E|----------------------------|-7--7-7-7-7-7--7-7-7-7-7----|

Repeat, before going to:

G|-----------------------|-----------------------|
D|-----------------------|-----------------------|
A|-5--5-5-5-5-5--5-5-5-5-|-5--5-5-5-5-4--4-4-4-4-|
E|-----------------------|-----------------------|

G|-----------------------|-----------------------|
D|-----------------------|-----------------------|
A|-----------------------|------------4--4-4-4-4-|
E|-7--7-7-7-7-7--7-7-7-7-|-7--7-7-7-7------------|

Then to:

G|----------------------------|-4-4-4-4-4-4-4-4-4-4-4-4-4--|
D|----------------------------|----------------------------|
A|-5--5-5-5-5-5--5-5-5-5-5----|----------------------------|
E|----------------------------|----------------------------|

The 4s on the g-string are the only part played in a different
rhythm to the guitar. They sound more like triplets.


Chorus 1:

G|------------------|------------------|
D|------------------|------------------|
A|------------------|------------------|
E|-3--3--3--3--3--3-|-3--3--3--5--5--5-|

G|------------------|------------------|
D|------------------|------------------|
A|------------------|------------------|
E|-7--7--7--7--7--7-|-7--7--7--5--5--5-|

G|------------------|------------------|
D|------------------|------------------|
A|------------------|------------------|
E|-3--3--3--3--3--3-|-3--3--3--5--5--5-|

G|------------------|------------------|
D|------------------|------------------|
A|------------------|-4--4--4--4--4--4-|
E|-5--5--5--5--5--5-|------------------|


Verse 2: starts with the ending of the chorus

G|----------------------------|----------------------------|
D|----------------------------|----------------------------|
A|-5\-------------------------|----------------------------|
E|----------------------------|-7--7-7-7-7-7--7-7-7-7-7----|

G|----------------------------|----------------------------|
D|----------------------------|----------------------------|
A|-5--5-5-5-5-5--5-5-5-5-5----|----------------------------|
E|----------------------------|-7--7-7-7-7-7--7-7-7-7-7----|

G|-----------------------|-----------------------|
D|-----------------------|-----------------------|
A|-5--5-5-5-5-5--5-5-5-5-|-5--5-5-5-5-4--4-4-4-4-|
E|-----------------------|-----------------------|

G|-----------------------|-----------------------|
D|-----------------------|-----------------------|
A|-----------------------|------------4--4-4-4-4-|
E|-7--7-7-7-7-7--7-7-7-7-|-7--7-7-7-7------------|

G|----------------------------|-4-4-4-4-4-4-4-4-4-4-4-4-4--|
D|----------------------------|----------------------------|
A|-5--5-5-5-5-5--5-5-5-5-5----|----------------------------|
E|----------------------------|----------------------------|


Chorus 2: slightly different to 1st but starts the same

G|------------------|------------------|
D|------------------|------------------|
A|------------------|------------------|
E|-3--3--3--3--3--3-|-3--3--3--5--5--5-|

G|------------------|------------------|
D|------------------|------------------|
A|------------------|------------------|
E|-7--7--7--7--7--7-|-7--7--7--5--5--5-|

G|------------------|------------------|
D|------------------|------------------|
A|------------------|------------------|
E|-3--3--3--3--3--3-|-3--3--3--5--5--5-|

G|------------------|------------------|
D|------------------|------------------|
A|------------------|-4--4--4--4--4--4-|
E|-5--5--5--5--5--5-|------------------|

Then:

G|------------------|------------------|
D|-5--5--5--5--5--5-|-5--5--5--7--7--7-|
A|------------------|------------------|
E|------------------|------------------|

G|------------------|------------------|
D|-9--9--9--9--9--9-|-9--9--9--7--7--7-|
A|------------------|------------------|
E|------------------|------------------|

G|------------------|------------------|
D|-5--5--5--5--5--5-|-5--5--5--7--7--7-|
A|------------------|------------------|
E|------------------|------------------|

G|------------------|------------------|
D|-9--9--9--9--9--9-|-9--9--9--9--9--9-|
A|------------------|------------------|
E|------------------|------------------|


Verse 3: starts with just the bass
                                                          x4
G|----------------------------|----------------------------|
D|----------------------------|----------------------------|
A|-5--5-5-5-5-5--5-5-5-5-5----|----------------------------|
E|----------------------------|-7--7-7-7-7-7--7-7-7-7-7----|

G|----------------------------|----------------------------|
D|----------------------------|----------------------------|
A|-5--5-5-5-5-5--5-5-5-5-5----|----------------------------|
E|----------------------------|-7--7-7-7-7-7--7-7-7-7-7\---|


Chorus 3:

G|------------------|------------------|
D|------------------|------------------|
A|------------------|------------------|
E|-3--3--3--3--3--3-|-3--3--3--5--5--5-|

G|------------------|------------------|
D|------------------|------------------|
A|------------------|------------------|
E|-7--7--7--7--7--7-|-7--7--7--5--5--5-|

G|------------------|------------------|
D|------------------|------------------|
A|------------------|------------------|
E|-3--3--3--3--3--3-|-3--3--3--5--5--5-|

G|------------------|------------------|
D|------------------|------------------|
A|------------------|-4--4--4--4--4--4-|
E|-5--5--5--5--5--5-|------------------|

Then:

G|------------------|------------------|
D|-5--5--5--5--5--5-|-5--5--5--7--7--7-|
A|------------------|------------------|
E|------------------|------------------|

G|------------------|------------------|
D|-9--9--9--9--9--9-|-9--9--9--7--7--7-|
A|------------------|------------------|
E|------------------|------------------|

G|------------------|------------------|
D|-5--5--5--5--5--5-|-5--5--5--7--7--7-|
A|------------------|------------------|
E|------------------|------------------|

G|------------------|------------------|
D|-9--9--9--9--9--9-|-9--9--9--9--9--9-|
A|------------------|------------------|
E|------------------|------------------|

Then: (I compacted it to save space, easier to read)
G|-----|-----|-----|-----|
D|-----|-----|-----|-----|
A|-----|-----|-----|-----|
E|--3--|--3--|--5--|--5--|

G|------------------|------------------|
D|------------------|------------------|
A|------------------|------------------|
E|-7--7--7--7--7--7-|-7--7--7--5--5--5-|

G|-----|-----|-----|-----|
D|-----|-----|-----|-----|
A|-----|-----|-----|-----|
E|--3--|--3--|--5--|--5--|

G|------------------|------------------|------------------|
D|------------------|------------------|------------------|
A|------------------|------------------|------------------|
E|-7--7--7--7--7--7-|-0--------5-------|-7----------------|

And that's it! I'm not 100% sure about the ending bit but it sounds fine when I play it 
along to the song.
Let me know if you come up with something different. Enjoy!

            
            
Suggest correction
Creating personal tab
Creating personal tab
You can edit any tab online and save it as your Personal.

You can edit, replace or remove any tab part or add personal notes – all changes will be seen only by you.

Personal tabs can be accessed anytime from any device, even offline.
Learn more »
Give kudos to tab author, rate the tab!
1 2 3 4 5
comments
print report bad tab
1 comment total.
0 reply
10Sam 93 Sep 08, 2013 05:46 AM

AWESOME! Thank you for posting your tab here! GREAT!

guest
You may want to rate the tab now too:
select rating
Wanna post a correction for this tab? Suggest correction