Oops, an error
Loading. Please wait.

Mindshaver bass

16 views 1 this week
no commentswrite comment
1 2 3 4 5
3 more votes to show rating
add to favorites
×
Save as Personal and add changes to this tab that will be seen only by you. Learn more ›
×
You can save this tab as Personal to edit and correct it or add notes. All changes will be seen only by you. Learn more »
launch autoscroll
font size
0
reset
guitar tuner
edit
Autoscroll
slow
fast
+/-
esc
set tempo
stop
Author
Difficulty
About this tab version
Bass tab for "Mindshaver" by Disharmonic Orchestra. Was this info helpful? Yes No
Band: Disharmonic Orchestra
Album: Ahead
Song: Mindshaver
Tab: Bass
Tabbed by: muberal

Tempo: 156bpm
4/4

[Intro]

G|----------------------------|
D|--------------------0/-7----|
A|----------------------------|
E|----------------------------|

G|----------------------------|----------------------------|
D|-----7--7-----7--7--8-------|-----------------------3----|
A|-----------------------5----|-----5--5-----5--3----------|
E|----------------------------|--------------------3-------|

G|----------------------------|----------------------------|
D|-----3--3-----3--3--5-------|-----------------------7----|
A|-----------------------3----|-----3--3-----3--3--3-------|
E|----------------------------|----------------------------|

G|----------------------------|----------------------------|
D|-----7--7-----7--7--8-------|-----------------------3----|
A|-----------------------5----|-----5--5-----5--3----------|
E|----------------------------|--------------------3-------|

G|----------------------------|----------------------------|
D|--3--3--3/----7--5----------|----------------------------|
A|-----------------------3----|-----3--3-----3--3--3--5----|
E|--------------------3-------|----------------------------|

[Verse 1]

G|----------------------------|----------------------------|
D|--7-----7-----7--7--8-------|-----------------------3----|
A|-----------------------5----|-----5--5-----5--3----------|
E|----------------------------|--------------------3-------|

G|----------------------------|----------------------------|
D|-----3--3-----3--3--5-------|-----------------------7----|
A|-----------------------3----|-----3--3-----3--3--3-------|
E|----------------------------|----------------------------|

G|----------------------------|----------------------------|
D|-----7--7-----7--7--8-------|-----------------------3----|
A|-----------------------5----|-----5--5-----5--3----------|
E|----------------------------|--------------------3-------|

G|----------------------------|----------------------------|
D|--3--3--3/----7--5----------|----------------------------|
A|-----------------------3----|-----3--3-----3--3--3--5----|
E|--------------------3-------|----------------------------|

[Chorus 1]

G|----------------------------|----------------------------|
D|--7-----7-----7--7--7--7----|--3-----3--3--3--3--3--5----|
A|----------------------------|----------------------------|
E|----------------------------|----------------------------|

G|----------------------------|----------------------------|
D|--5-----5-----5--5--5-------|----------------------------|
A|-----------------------3----|-----3-----5-----5--3--5----|
E|----------------------------|----------------------------|

G|----------------------------|----------------------------|
D|--7-----7-----7--7--7--7----|--3-----3--3--3--3--3--5----|
A|----------------------------|----------------------------|
E|----------------------------|----------------------------|

G|----------------------------|----------------------------|
D|--5-----5-----5--5--5-------|----------------------------|
A|-----------------------3----|-----3-----5-----5--3--5----|
E|----------------------------|----------------------------|

[Post-Chorus 1]

G|----------------------------|----------------------------|
D|--7-----7-----7--7--8-------|-----------------------3----|
A|-----------------------5----|-----5--5-----5--3----------|
E|----------------------------|--------------------3-------|

G|----------------------------|----------------------------|
D|-----3--3-----3--3--5-------|-----------------------7----|
A|-----------------------3----|-----3--3-----3--3--3-------|
E|----------------------------|----------------------------|

G|----------------------------|----------------------------|
D|-----7--7-----7--7--8-------|-----------------------3----|
A|-----------------------5----|-----5--5-----5--3----------|
E|----------------------------|--------------------3-------|

G|----------------------------|----------------------------|
D|--3--3--3/----7--5----------|----------------------------|
A|-----------------------3----|-----3--3-----3--3--3--5----|
E|--------------------3-------|----------------------------|

[Verse 2]

G|----------------------------|----------------------------|
D|--7-----7-----7--7--8-------|-----------------------3----|
A|-----------------------5----|-----5--5-----5--3----------|
E|----------------------------|--------------------3-------|

G|----------------------------|----------------------------|
D|-----3--3-----3--3--5-------|-----------------------7----|
A|-----------------------3----|-----3--3-----3--3--3-------|
E|----------------------------|----------------------------|

G|----------------------------|----------------------------|
D|-----7--7-----7--7--8-------|-----------------------3----|
A|-----------------------5----|-----5--5-----5--3----------|
E|----------------------------|--------------------3-------|

G|----------------------------|----------------------------------------------------|
D|--3--3--3/----7--5----------|--------------------------------------------7--7----|
A|-----------------------3----|--------3-----3-----------3-----3-----3-------------|
E|--------------------3-------|----------------------------------------------------|

[Chorus 2]

G|----------------------------|----------------------------|
D|--7-----7-----7--7--7--7----|--3-----3--3--3--3--3--5----|
A|----------------------------|----------------------------|
E|----------------------------|----------------------------|

G|----------------------------|----------------------------|
D|--5-----5-----5--5--5-------|----------------------------|
A|-----------------------3----|-----3-----5-----5--3--5----|
E|----------------------------|----------------------------|

G|----------------------------|----------------------------|
D|--7-----7-----7--7--7--7----|--3-----3--3--3--3--3--5----|
A|----------------------------|----------------------------|
E|----------------------------|----------------------------|

G|----------------------------|----------------------------|
D|--5-----5-----5--5--5-------|----------------------------|
A|-----------------------3----|-----3-----5-----5--3--5----|
E|----------------------------|----------------------------|

[Post Chorus 2]

Seven empty measures.

G|----------------------------|
D|-----------------------3/---|
A|----------------------------|
E|----------------------------|

[Verse 3]

G|----------------------------|----------------------------|
D|--7--7--7-----7--7--8-------|-----------------------3----|
A|-----------------------5----|-----5--5-----5--3----------|
E|----------------------------|--------------------3-------|

G|----------------------------|----------------------------|
D|-----3--3-----3--3--5-------|-----------------------7----|
A|-----------------------3----|-----3--3-----3--3--3-------|
E|----------------------------|----------------------------|

G|----------------------------|----------------------------|
D|-----7--7-----7--7--8-------|-----------------------3----|
A|-----------------------5----|-----5--5-----5--3----------|
E|----------------------------|--------------------3-------|

G|----------------------------|----------------------------|
D|--3--3--3/----7--5----------|----------------------------|
A|-----------------------3----|-----3--3-----3--3--3--5----|
E|--------------------3-------|----------------------------|

[Bridge]

G|----------------------------|----------------------------|
D|--7-----7-----7--5--5--5----|--5--7~----5--7--7--5--7----|
A|----------------------------|----------------------------|
E|----------------------------|----------------------------|

G|----------------------------|----------------------------|
D|--8-----8-----8-------------|--------------------5-------|
A|--------------------8-------|--7-----7-----8-------------|
E|----------------------------|----------------------------|

G|----------------------------|----------------------------|
D|--7-----7--7--7--7--7-------|--------5-----5-------------|
A|-----------------------8----|--8--8----------------------|
E|----------------------------|-----------------8--8-------|

G|----------------------------|----------------------------|
D|-----------------------7----|--7--7--8--------8--8-------|
A|--3--3--3--3--3--3--3-------|-----------------------8----|
E|----------------------------|----------------------------|

Now there's a fade-out for the next part. Play the same with one variation in the last measure:

G|----------------------------|----------------------------|
D|--7-----7-----7--5--5--5----|--5--7~----5--7--7--5--7----|
A|----------------------------|----------------------------|
E|----------------------------|----------------------------|

G|----------------------------|----------------------------|
D|--8-----8-----8-------------|--------------------5-------|
A|--------------------8-------|--7-----7-----8-------------|
E|----------------------------|----------------------------|

G|----------------------------|----------------------------|
D|--7-----7--7--7--7--7-------|--------5-----5-------------|
A|-----------------------8----|--8--8----------------------|
E|----------------------------|-----------------8--8-------|

G|----------------------------|----------------------------|
D|-----------------------7----|--7--7-----8-----8--8-------|
A|--3--3--3--3--3--3--3-------|-----------------------8----|
E|----------------------------|----------------------------|

And once more, but almost not audible.

G|----------------------------|----------------------------|
D|--7-----7-----7--5--5--5----|--5--7~----5--7--7--5--7----|
A|----------------------------|----------------------------|
E|----------------------------|----------------------------|

G|----------------------------|----------------------------|
D|--8-----8-----8-------------|--------------------5-------|
A|--------------------8-------|--7-----7-----8-------------|
E|----------------------------|----------------------------|

G|----------------------------|----------------------------|
D|--7-----7--7--7--7--7-------|--------5-----5-------------|
A|-----------------------8----|--8--8----------------------|
E|----------------------------|-----------------8--8-------|

G|----------------------------|----------------------------|
D|-----------------------7----|--7--7--8--------8--8-------|
A|--3--3--3--3--3--3--3-------|-----------------------8----|
E|----------------------------|----------------------------|

7 empty measures.

G|----------------------------|
D|--------------------0--7----|
A|----------------------------|
E|----------------------------|

[Re-Intro]

G|----------------------------|----------------------------|
D|--7--7--7-----7--7--8-------|-----------------------3----|
A|-----------------------5----|-----5--5-----5--3----------|
E|----------------------------|--------------------3-------|

G|----------------------------|----------------------------|
D|-----3--3-----3--3--5-------|-----------------------7----|
A|-----------------------3----|-----3--3-----3--3--3-------|
E|----------------------------|----------------------------|


G|----------------------------|----------------------------|
D|-----7--7-----7--7--8-------|-----------------------3----|
A|-----------------------5----|-----5--5-----5--3----------|
E|----------------------------|--------------------3-------|

G|----------------------------|----------------------------|
D|--3--3--3/----7--5----------|----------------------------|
A|-----------------------3----|-----3--3-----3--3--3--5----|
E|--------------------3-------|----------------------------|

[Verse 4]

G|----------------------------|----------------------------|
D|--7--7--7-----7--7--8-------|-----------------------3----|
A|-----------------------5----|-----5--5-----5--3----------|
E|----------------------------|--------------------3-------|

G|----------------------------|----------------------------|
D|-----3--3-----3--3--5-------|-----------------------7----|
A|-----------------------3----|-----3--3-----3--3--3-------|
E|----------------------------|----------------------------|

G|----------------------------|----------------------------|
D|-----7--7-----7--7--8-------|-----------------------3----|
A|-----------------------5----|-----5--5-----5--3----------|
E|----------------------------|--------------------3-------|

G|----------------------------|----------------------------|
D|--3--3--3/----7--5----------|----------------------------|
A|-----------------------3----|-----3--3-----3--3--3--5----|
E|--------------------3-------|----------------------------|

[Chorus 3]

G|----------------------------|----------------------------|
D|--7-----7-----7--7--7--7----|--3-----3--3--3--3--3--5----|
A|----------------------------|----------------------------|
E|----------------------------|----------------------------|

G|----------------------------|----------------------------|
D|--5-----5-----5--5--5-------|----------------------------|
A|-----------------------3----|-----3-----5-----5--3--5----|
E|----------------------------|----------------------------|

G|----------------------------|----------------------------|
D|--7-----7-----7--7--7--7----|--3-----3--3--3--3--3--5----|
A|----------------------------|----------------------------|
E|----------------------------|----------------------------|

G|----------------------------|----------------------------|
D|--5-----5-----5--5--5-------|----------------------------|
A|-----------------------3----|-----3-----5-----5--3--5----|
E|----------------------------|----------------------------|

[Verse 5]

G|----------------------------|----------------------------|
D|--7-----7--7--7--7--8-------|-----------------------3----|
A|-----------------------5----|-----5--5-----5--3----------|
E|----------------------------|--------------------3-------|

G|----------------------------|----------------------------|
D|-----3--3-----3--3--5-------|-----------------------7----|
A|-----------------------3----|-----3--3-----3--3--3-------|
E|----------------------------|----------------------------|

G|----------------------------|----------------------------|
D|--7--7--7-----7--7--8-------|-----------------------3----|
A|-----------------------5----|-----5--5-----5--3----------|
E|----------------------------|--------------------3-------|

G|----------------------------|----------------------------|
D|--3--3--3/----7--5----------|-----------------------7----|
A|-----------------------3----|-----3--3-----3--3--3-------|
E|--------------------3-------|----------------------------|

G|----------------------------|----------------------------|
D|--7--7--7-----7--7--8-------|-----------------------3----|
A|-----------------------5----|-----5--5-----5--3----------|
E|----------------------------|--------------------3-------|

G|----------------------------|----------------------------|
D|-----3--3-----3--3--5-------|-----------------------7----|
A|-----------------------3----|-----3--3-----3--3--3-------|
E|----------------------------|----------------------------|

G|----------------------------|----------------------------|
D|-----7--7-----7--7--8-------|-----------------------3----|
A|-----------------------5----|-----5--5-----5--3----------|
E|----------------------------|--------------------3-------|

G|----------------------------|----------------------------|
D|--3--3--3/----7--5----------|-----------------------7----|
A|-----------------------3----|-----3--3-----3--3--3-------|
E|--------------------3-------|----------------------------|

[Outro]

G|----------------------------|----------------------------|
D|--7--7--7-----7--7--8-------|-----------------------3----|
A|-----------------------5----|-----5--5-----5--3----------|
E|----------------------------|--------------------3-------|

G|----------------------------|
D|-----3--3-----3--3--5-------|
A|-----------------------3----|
E|----------------------------|

Fin.

************************************
 
| /  slide up
| ~  vibrato

************************************

            
            
Suggest correction
Creating personal tab
Creating personal tab
You can edit any tab online and save it as your Personal.

You can edit, replace or remove any tab part or add personal notes – all changes will be seen only by you.

Personal tabs can be accessed anytime from any device, even offline.
Learn more »
Give kudos to tab author, rate the tab!
1 2 3 4 5
comments
print report bad tab
guest
You may want to rate the tab now too:
select rating
Wanna post a correction for this tab? Suggest correction