Oops, an error
Loading. Please wait.

All She Can See Chords

169 views 1 this week
no commentswrite comment
1 2 3 4 5
please rate
add to favorites
launch autoscroll
font size
0
reset
transpose
0
reset
simplify chords
display chords
guitar tuner
Tab Pro tools
  • play this tab
  • loop segment
  • change instrument
  • show fretboard
  • metronome
×
Best way to learn
"All She Can See"
Autoscroll
slow
fast
+/-
esc
set tempo
stop
Contributor
-----------------------------------------------------------------------------
                        ALL SHE CAN SEE - Dishwalla
-----------------------------------------------------------------------------

Tabbed by: iNebula
Tuning: standard

CHORDS
Em:    022000
G:     355433
A:     577655
Em6:   022020
Em7:   022030
CM7/E: 022010
Bsus4: 7799xx
Esus4: 0099xx
Asus4: 5577xx
A5:    577xxx
G5:    355xxx
E5:    022xxx

[INTRO]
Em Em7 Em6 CM7/E Em (Em7)
G A Em


Em
I've ne- I've never known such pure madness

G       A                    Em      
and for her it's all she can see

Em   Em7             Em6        CM7/E Em (Em7)
I've nev- I've never known such pure  madness

G        A                   Em      
and for her it's all she can see

        Bsus4
how she laid low, laid low on the floor

         Esus4                                      Bsus4
how she yelled no, how she yelled with all of her heart no, no

           G A         Em
still it's all she can see


G  A                   Em 
     how the pain ran deep

Em                Em7           Em6  CM7/E Em (Em7)
how she holds her eyes to the ground

        G           A           Em
what a waste of a soul, what a waste

                       Bsus4
never never never will she live without it

                                      Esus4
think about it, can she live without it?

                              Bsus4
never will she live without it...no

           G A          Bsus4 
still it's all she will see no more, no more, no no...


[SOLO]

e|----------------------------------10----10---------10----------|
B|-----------------------------8h10----12---------------12-------|
G|---------------7---------7h9-----------------------------------|
D|-----------7h9---9p7-9-----------------------------------------|
A|-------7h10----------------------------------------------------|
E|--7h10---------------------------------------------------------|

e|--10--10/12---------10--10--10-9----------10--10-10-9----------|
B|------------12-------------------12-------------------12-------|
G|------------------------------------12------------------12-----|
D|---------------------------------------------------------------|
A|---------------------------------------------------------------|
E|---------------------------------------------------------------|

e|--10--10----12--12----15--15----17--17----17/19----19-17-15-17-|
B|----12--------12--------15--------17---------------------------|
G|---------------------------------------------------------------|
D|---------------------------------------------------------------|
A|---------------------------------------------------------------|
E|---------------------------------------------------------------|

(end solo on Em)

           G          A               Em
still it's all, it's all, all she can see

           G          A               Em
still it's all, it's all, all she can see

           G         A
still it's all, it's all


it's all she can see

[OUTRO]
Bsus4 Asus4 A5 G5
A5 G5 E5



------------------------------------------------------------
------------------------------------------------------------
That's my best guess on the solo. It is the first one I have attempted to tab out, 
so please make suggestions.


************************************

| /   slide up
| \   slide down
| h   hammer-on
| p   pull-off
| ~   vibrato
| +   harmonic
| x   Mute note
| b   Bend
| pb  Pre-bend
| br  Bend release
| pbr Pre-bend release
| brb Bend release bend

************************************
comments
We did not receive enough feedback on this tab! Please rate:
print report bad tab
1 2 3 4 5
I want to post or [tab]
guest
You may want to rate the tab now too:
select rating
Please do not post tabs as comments. Select "correction" instead!