Oops, an error
Loading. Please wait.

Angels Or Devils Tab

version 1
version 1

Whole song

Interactive

Video

88,738 views 57 this week
7 commentsread comments
1 2 3 4 5
x 30
add to favorites
launch autoscroll
font size
0
reset
how to read this tab
guitar tuner
×
Best way to learn
"Angels Or Devils"
Autoscroll
slow
fast
+/-
esc
set tempo
stop
BAND:        Dishwalla
SONG:        Angels Or Devils
TABBED BY:   Johnathan Chau
E-MAIL:      jchau@mybluelight.com

i hope you enjoy this tab and it helps. This song is awesome.  

[INTRO/VERSE]
Gtr.1
(ACOUSTIC)
       C        G6       Am       Em
eb|----0-0-0-0--0-0-0-0--0-0-0-0--0-0-0-0----|
Bb|----1-1-1-1--0-0-1-0--1-1-1-1--0-0-0-0----|
Gb|----0-0-0-0--0-0-0-0--2-2-2-2--0-0-0-0----|
Db|----2-2-2-2--0-0-0-0--2-2-2-2--2-2-2-2----|
Ab|----3-3-3-3--2-2-2-2--0-0-0-0--2-2-2-2----|
Eb|-------------3-3-3-3----------------------|

Gtr.1
(ELECTRIC)
       C        G6       Am       Em
eb|----0-0-0-0--0-0-0-0--0-0-0-0--0-0-0-0----|
Bb|----1-1-1-1--0-0-1-3--1-1-1-1--0-0-3-3----|
Gb|----0-0-0-0--0-0-0-0--2-2-2-2--0-0-0-0----|
Db|----2-2-2-2--0-0-0-0--2-2-2-2--2-2-2-2----|
Ab|----3-3-3-3--2-2-2-2--0-0-0-0--2-2-2-2----|
Eb|-------------3-3-3-3----------------------|

After the intro, you play this. Listen to the song and you will know when this part comes in.

             V
eb|------------------------------------------|
Bb|----1-1-1-1-1-1-1-1-0-0-0-0-1-1-3-3-------|
Gb|------------------------------------------|
Db|------------------------------------------|
Ab|------------------------------------------|
Ee|------------------------------------------|

eb|------------------------------------------|
Bb|----1-1-1-1-1-1-1-1-0-0-0-0-3-3-1-1-------|
Gb|------------------------------------------|
Db|------------------------------------------|
Ab|------------------------------------------|
Ee|------------------------------------------|

[Verse]
C              G6        Am
this is the last time
                         Em
that I'm ever gonna come here tonight
C              G6             Am
this is the last time I will fall
                  Em             F
into a place that fails us all inside
                  Dm          F
and I can see the pain in you
                  Dm          F
and I can see the love in you
                     Dm                    F
but fighting all the demons will take time
it will take time

[Chorus]
C               E               Am
the angels they burn inside for us
       Am/G  F
are we ever---
                           C
are we ever gonna learn to fly
                E              Am
the devils they burn inside of us
       Am/G               D/F#
are we ever gonna come back down
     F
come around
I'm always gonna worry about
                              C
the things that could make us cold

[Verse]
               G6        Am
this is the last time
                         Em
that I'm ever gonna give in tonight
C                   G6              Am
are there angels or devils crawling here?
                                   Em               F
I just want to know what blurs and what is clear to see 
                   Dm          F
well I can see the pain in you
                  Dm           F
and I can see the love in you
                     Dm                    F
and fighting all the demons will take time
it will take time

[Chorus]
C               E               Am
the angels they burn inside for us
       Am/G  F
are we ever---
                           C
are we ever gonna learn to fly
                E              Am
the devils they burn inside of us
       Am/G               D/F#
are we ever gonna come back down
     F
come around 
I'm always gonna worry about the things
that could break us

[Bridge]
Am  Am/B      Am/C    Am/B           Am
if  I were to give in give it up and then
         Am/B           Am/C
I take a breath make it deep
         D/F#         F
cause it might be the last one you get
may the last one

[Outro]
                 C    E    Am    Am/G    F
it could make us cold--------------------
                 C    E    Am    Am/G    D/F#
it could make us cold--------------------
F
I'm always gonna worry about
                              C
the things that could make us cold

[CHORDS]
     C    G6   Am   Em   F    Dm   E   Am/G   D/F#  Am/B  Am/C
e|---0----0----0----0----1----1----0-----0-----2-----0-----0---|
B|---1----0----1----0----1----3----0-----1-----3-----1-----1---|
G|---0----0----2----0----2----2----1-----x-----2-----2-----2---|
D|---2----0----2----2----3----0----2-----2-----0-----x-----x---|
A|---3----2----0----2----3---------2-----x-----0-----2-----3---|
E|--------3---------0----1---------0-----3-----2-----x-----x---|

Please rate this! This is a great emo song.
Suggest correction
comments
print report bad tab
7 comments total. Showing first comments.
+2 reply
strumhappy 10 Jul 14, 2006 06:24 AM

a few blunders but i got the idea (x^_^)

+2 reply
Emma Peel 130 Oct 01, 2006 08:11 PM

This is more a question . . . is Dishwalla emo?

+2 reply
shmedo 71 Dec 13, 2006 02:42 PM

its not 'emo' as such, not emo like Fallout Boy or bands like that. Emo as emotional, as its a sad song. Good tab too btw

guest
You may want to rate the tab now too:
select rating
Wanna post a correction for this tab? Suggest correction