Oops, an error
Loading. Please wait.

Candleburn Tab

version 1
version 1

Whole song

8,925 views 15 this week
2 commentsread comments
1 2 3 4 5
2 more votes to show rating
add to favorites
×
Save as Personal and add changes to this tab that will be seen only by you. Learn more ›
×
You can save this tab as Personal to edit and correct it or add notes. All changes will be seen only by you. Learn more »
save as personal
new!
launch autoscroll
font size
0
reset
how to read this tab
guitar tuner
Autoscroll
slow
fast
+/-
esc
set tempo
stop
DISHWALLA - Candleburn

Standard tuning! Listen to the song to get the right timing!

This isn't a guitarsong, it's actually played with a piano but
I have tabbed it for guitar and it's not 100% correct but,
this is what I've come up with:

 Intro/Verse
   |---------------------------------------------------------|
   |-------------------2-------------------------------------|
||:|------10-11-----------------------------10---------| :---|
   |---8-----------4------------6-8-----6--------------------|
   |-6-----------2-----------4--------4----------------------|
   |-----------------------2---------------------------------|

|-----------1--4----------%-----|
|---------4------7---7----%-----|
|-----4----------8---6----%-6---|2x
|---4---4----4-----8---6--%-6---|
|-2-----------------------%-4---|
|-------------------------%-----|
...then play this once:
|-----------1--4---------------|----|
|---------4------7---7---------|----|
|-----4----------8---6---------|-6--|
|---4---4----4-----8---6--4----|-6--|
|-2-----------------------4----|-4--|
|-------------------------2----|----|

Refrain:

Just play softly ||: B B D#m C# :||
       Last time: B D#m F# B

WHAT A GREAT SONG!!!
Suggest correction
Give kudos to tab author, rate the tab!
1 2 3 4 5
comments
print report bad tab
2 comments total.
+1 reply
Scott Herren 10 Jan 14, 2004 07:00 PM

Intro is easier for me to play like this.

|-----1-2----------------------1-----
|--------------2---------------------
|---3-----------------1-3----1-------
|-1----------4-----------------------
|----------2--------4------4---------
|-----------------2------------------

0 reply
Emma Peel 130 Feb 12, 2007 09:17 PM

Good tab! Scott Herren, your tab works, too; just another way to play . . .
Good job!

guest
Wanna post a correction for this tab? Suggest correction