Oops, an error
Loading. Please wait.

Casket Garden Tab

version 2
version 2

Whole song

Interactive

650 views 3 this week
no commentswrite comment
1 2 3 4 5
please rate
add to favorites
launch autoscroll
font size
0
reset
how to read this tab
guitar tuner
Tab Pro tools
  • play this tab
  • loop segment
  • change instrument
  • show fretboard
  • metronome
×
Best way to learn
"Casket Garden"
Autoscroll
slow
fast
+/-
esc
set tempo
stop
Contributor
Tuning
Tabbers playing skills
B E A D F# B
intermediate ++
                         CASKET GARDEN
                            As recorded by Dismember
                 (From the 1995 Album MASSIVE KILLING CAPACITY)
Tuning BEADGF#B

 Intro
   Q=130
  N.C.  G5Bb5   E5                                         G5Bb5
 4/4
  Gtr I
        PM|                                                PM|
|-----------||-------------------------|-------------------------||
|-----------||o------------------------|------------------------o||
|-----------||-------------------------|-------------------------||
|-----------||-------------------------|-------------------------||
|-------5-8-||o-2----------------------|-(2)---------------5-8--o||
|-------3-6-||--0----------------------|-(0)---------------3-6---||
|
| Gtr II
|       PM------|       PM                PM       PM      PM|
|-----------||-------------------------|-------------------------||
|-----------||o------------------------|------------------------o||
|-----------||-------------------------|-------------------------||
|-----------||-------------------------|-------------------------||
|-------5-8-||o-2-7h8p7---7h10p7-7h8p7-|-----7h8p7---5h7p5-5-8--o||
|-------3-6-||--0-------0--------------|--0--------0-------3-6---||


   Pre-Verse
    E5N.C.                                   G5Bb5
    Gtrs I, II
    PM      PM               PM      PM      PM|
                                                  4x
||-------------------------|----------------------||
||o------------------------|---------------------o||
||-------------------------|----------------------||
||-------------------------|----------------------||
||o-2-7h8p7---7h10p7-7h8p7-|---7h8p7---5h7p5-5-8-o||
||--0-------0--------------|-0-------0-------3-6--||


   Verse 1 & 2
                    1.,2.,3.           4.
    $                                       To Coda
    E5                    F5G5F5Ab5    E5    F5G5F5Ab5
               PM|        PM--|          PM------|
                                    4x
||-----------------|----------------||-----------------||
||o----------------|---------------o||-----------------||
||-----------------|----------------||-----------------||
||-----------------|----------------||-----------------||
||o-2-2--2--2--2-2-|-2-2--3-5-3-6--o||-2-2-2-3-5-3-6---||
||--0-0--0--0--0-0-|-0-0--1-3-1-4---||-0-0-0-1-3-1-4---||


   Interlude
                                   D.S. al Coda
    E5N.C.                                   G5Bb5
    PM      PM               PM      PM      PM|
||-------------------------|----------------------||
||o------------------------|---------------------o||
||-------------------------|----------------------||
||-------------------------|----------------------||
||o-2-7h8p7---7h10p7-7h8p7-|---7h8p7---5h7p5-5-8-o||
||--0-------0--------------|-0-------0-------3-6--||


   Pre-Chorus
    &
    N.C.
    PM                      PM
||------------------------|-----------------------|
||o-----------------------|-----------------------|
||------------------------|-----------------------|
||------------------------|-----------------------|
||o---7h8p7-(7)s5-5s7-7-8-|---7h8p7-(7)s5-5s7-7---|
||--0---------------------|-0-------------------6-|


                                  A5  Bb5 A5
  PM
|-----------------------|---------------------||
|-----------------------|--------------------o||
|-----------------------|---------------------||
|-----------------------|---------------------||
|---7h8p7-(7)s5-5s7-7-8-|---7h8p7-7-7s8-8s7--o||
|-0---------------------|-0-------5-5s6-6s5---||


   Chorus
    $$                                                    To Dbl. Coda
    E5       Bb5B5      BbB5BbG5      Bb5      N.C.
||----------------|-----------------|---------------|--------------------||
||o---------------|-----------------|---------------|-------------------o||
||----------------|-----------------|---------------|--------------------||
||----------------|-----------------|---------------|--------------------||
||o-2----(2)-8--9-|-(9)-8-9-8-5--5--|-8----(8)-7--8-|-(8)-5-7-8-7--7\---o||
||--0----(0)-6--7-|-(7)-6-7-6-3--3--|-6----(6)------|--------------------||


 Breakdown
  E5                                          G5Bb5
  Gtr I
                                              PM|
|------------------------|------------------------||
|------------------------|------------------------||
|------------------------|------------------------||
|------------------------|------------------------||
|-2----------------------|-(2)---------(2)----5-8-||
|-0----------------------|-(0)---------(0)----3-6-||
|
| Gtr II
| PM      PM                PM       PM       PM|
|------------------------|------------------------||
|------------------------|------------------------||
|------------------------|------------------------||
|------------------------|------------------------||
|-2-7h8p7---7h10p7-7h8p7-|-----7h8p7----5h7p5-5-8-||
|-0-------0--------------|--0--------0--------3-6-||


   Verse 3
    E5                    F5G5F5Ab5    E5                     F5G5F5Ab5
    Gtrs I, II
               PM|        PM--|                   PM|     PM------|
                                    3x
||-----------------|----------------||----------------|-----------------||
||o----------------|---------------o||----------------|-----------------||
||-----------------|----------------||----------------|-----------------||
||-----------------|----------------||----------------|-----------------||
||o-2-2--2--2--2-2-|-2-2--3-5-3-6--o||-2-2--2--2--2-2-|-2-2-2-3-5-3-6---||
||--0-0--0--0--0-0-|-0-0--1-3-1-4---||-0-0--0--0--0-0-|-0-0-0-1-3-1-4---||


   Pre-Chorus
    N.C.
    PM                      PM                      PM
||------------------------|-----------------------|-----------------------|
||o-----------------------|-----------------------|-----------------------|
||------------------------|-----------------------|-----------------------|
||------------------------|-----------------------|-----------------------|
||o---7h8p7-(7)s5-5s7-7-8-|---7h8p7-(7)s5-5s7-7---|---7h8p7-(7)s5-5s7-7-8-|
||--0---------------------|-0-------------------6-|-0---------------------|


  1.                      2.
                       D.S.S. al Dbl. Coda
                 Bb5      N.C.    A5  Bb5 A5
|----------------------||-------------------||
|---------------------o||-------------------||
|----------------------||-------------------||
|----------------------||-------------------||
|---7h8p7-(7)s5--8--8-o||---7h8p7-7-7s8-8s7-||
|-0--------------6--6--||-0-------5-5s6-6s5-||


 Interlude
  &&
  E5
  Gtr I
|-----------------|-------------------------|
|-----------------|-------------------------|
|-----------------|-------------------------|
|-----------------|-------------------------|
|-2---------------|-(2)---------------------|
|-0---------------|-(0)---------------------|
|
| Gtr II
|-----------------|-------------------------|
|-----------------|-------------------------|
|-----------------|-------------------------|
|---------7-6-----|-------------------------|
|---7-8-7-----5-8-|-----7-(7)b8r=6-(6)b7r===|
|-0---------------|--0--------------------8-|


                                   BbA5  E5
|-------------------|----------------------|
|-------------------|----------------------|
|-------------------|----------------------|
|-------------------|----------------------|
|-(2)---------------|-(2)----------8-7-7-2-|
|-(0)---------------|-(0)----------6-5-5-0-|
|
|-------------------|----------------------|
|-------------------|----------------------|
|-------------------|----------------------|
|-----------7-6-----|----------------------|
|-----7-8-7-----5-8-|-----7-(7)b8r=8-7-7-2-|
|--0----------------|--0-----------6-5-5-0-|


    N.C.
    Gtrs I, II
||------------------|-----------------------|
||o-----------------|-----------------------|
||------------------|-----------------------|
||----------7-6-----|-----------------------|
||o---7-8-7-----5-8-|---7-(7)b8r=6-(6)b7r===|
||--0---------------|-0-------------------8-|


                               BbA5  E5
|-----------------|----------------------||
|-----------------|---------------------o||
|-----------------|----------------------||
|---------7-6-----|----------------------||
|---7-8-7-----5-8-|---7-(7)b8r=8-7-7-2--o||
|-0---------------|-0----------6-5-5-0---||


 Guitar Solo
  E5                                     F5G5  F5Ab5
  Gtr I
                   PM----|               PM----|
|--------------------------|------------------------|
|--------------------------|------------------------|
|--------------------------|------------------------|
|--------------------------|------------------------|
|--2-2--2-----2----2-----2-|--2---2------3--5--3-6--|
|--0-0--0-----0----0-----0-|--0---0------1--3--1-4--|
|
| Gtr II
|  ~~                                    ~~~~~~
|--------------------------|------------------------|
|--------------------------|------------------------|
|-/9------(9)---8-(8)b9====|=(8)r(8)-(8)------------|
|--------------------------|-------------9-(9)------|
|--------------------------|------------------------|
|--------------------------|------------------------|


  E5                                             F5G5  F5Ab5
                                     PM-|        PM----|
|-----------------------------------------|----------------------|
|-----------------------------------------|----------------------|
|-----------------------------------------|----------------------|
|-----------------------------------------|----------------------|
|--2-------2---2--------2------------2--2-|-2-2--3--5--3--6------|
|--0-------0---0--------0------------0--0-|-0-0--1--3--1--4------|
|
|                                           ~~~~~~~~~~~
|-----------------------------------------|----------------------|
|-----------------------------------------|----------------------|
|-11b12==(11)----(11)r-11b12==(11)r(11)---|-9------(9)---(9)\----|
|-----------------------------------------|----------------------|
|-----------------------------------------|----------------------|
|-----------------------------------------|----------------------|


  E5                       F5G5F5Ab5
               PM|         PM--|
|------------------|----------------|
|------------------|----------------|
|------------------|----------------|
|------------------|----------------|
|---2-2--2--2--2-2-|--2-2--3-5-3-6--|
|---0-0--0--0--0-0-|--0-0--1-3-1-4--|
|
|   ~~~~~~~~~~~~~~~~~~~~
|------------------|----------------|
|-/12--------------|-11-------------|
|------------------|----------------|
|------------------|----------------|
|------------------|----------------|
|------------------|----------------|


  E5                                    F5    G5   F5Ab5
                        PM|         PM-------------|
|---------------------------|----------------------------||
|---------------------------|----------------------------||
|---------------------------|----------------------------||
|---------------------------|----------------------------||
|-2-2---------2------2--2-2-|--2----2-2-3-----5----3-6---||
|-0-0---------0------0--0-0-|--0----0-0-1-----3----1-4---||
|
|                 ~~~
|---------------------------|----------------------------||
|-8---(8)b10r(8)-(8)--------|-10b12r==8-7h8p7-8b10r==7---||
|---------------------------|--------------------------9-||
|---------------------------|----------------------------||
|---------------------------|----------------------------||
|---------------------------|----------------------------||


 Chorus
  E5          Bb5B5      BbB5BbG5      Bb5      N.C.
|------------------|-----------------|---------------|------------------|
|------------------|-----------------|---------------|------------------|
|------------------|-----------------|---------------|------------------|
|------------------|-----------------|---------------|------------------|
|---2-----(2)-8--9-|-(9)-8-9-8-5--5--|-8----(8)-7--8-|-(8)-5-7-8-7--7\--|
|---0-----(0)-6--7-|-(7)-6-7-6-3--3--|-6----(6)------|------------------|
|
|   ~~~~~~~~~~
|------------------|-----------------|---------------|------------------|
|------------------|-----------------|---------------|------------------|
|-/12----(12)------|-----------------|---------------|------------------|
|------------------|-----------------|---------------|------------------|
|-------------8--9-|-(9)-8-9-8-5--5--|-8----(8)-7--8-|-(8)-5-7-8-7--7\--|
|-------------6--7-|-(7)-6-7-6-3--3--|-6----(6)------|------------------|


    E5       Bb5B5      BbB5BbG5      Bb5      N.C.
    Gtrs I, II
                                                                         3x
||----------------|-----------------|---------------|--------------------||
||o---------------|-----------------|---------------|-------------------o||
||----------------|-----------------|---------------|--------------------||
||----------------|-----------------|---------------|--------------------||
||o-2----(2)-8--9-|-(9)-8-9-8-5--5--|-8----(8)-7--8-|-(8)-5-7-8-7--7\---o||
||--0----(0)-6--7-|-(7)-6-7-6-3--3--|-6----(6)------|--------------------||


                  G5Bb5 E5N.C.
  PM      PM      PM|
|---------------------|----------*|
|---------------------|----------*|
|---------------------|----------*|
|---------------------|----------*|
|---7h8p7---5h7p5-5-8-|-2--------*|
|-0-------0-------3-6-|-0--------*|
comments
We did not receive enough feedback on this tab! Please rate:
print report bad tab
1 2 3 4 5
I want to post or [tab]
guest
You may want to rate the tab now too:
select rating
Please do not post tabs as comments. Select "correction" instead!