Oops, an error
Loading. Please wait.

Dreaming In Red Bass

version 1
version 1

Whole song

Interactive

1,718 views 9 this week
no commentswrite comment
1 2 3 4 5
2 more votes to show rating
add to favorites
×
Save as Personal and add changes to this tab that will be seen only by you. Learn more ›
×
You can save this tab as Personal to edit and correct it or add notes. All changes will be seen only by you. Learn more »
save as personal
new!
launch autoscroll
font size
0
reset
guitar tuner
Autoscroll
slow
fast
+/-
esc
set tempo
stop
DISMEMBER
Dreaming In Red (Bass intro + stuff)
TAB by Steve Wasylyk

	I've searched the net, hoping to find lots of death metal tabs. I've 
seen about 20 and that's it. Hopefully people will start to u/l the stuff 
they've figured out. If anybody knows where stuff like this can be found, 
or has stuff to trade, exchange, give,  
please E - mail me at"
MACABRE@INTERLOG.COM

MUCH THANKS...

(Bass tuned at normal notation)
*This is definatly not exact but it is workable*
(Play 6)
|---------------------------------------------------
|---2--3--5--7--5--3-3-3-2-------------------------
|----------------------------2--3--5--7--5--3-3-3-2
|-0--0--0--0--0--0---------0--0--0--0--0--0--------

I'm not really sure about this part, but it sound a lot like Metallica's 
cover of Blitzkriege...listen and check it out
(Play 2) - *Second time requires a slight change on the ending*
|---------------------------------------------------------------------
|------------------------------------6-6-6-6-6-6-6-6-6-6-5-5-3-3----
|-3-3-3-3-3-3-3-3-3-3-5-5-6-6-5-5--------------------------------6-6
|----------------------------------------------------------------------

Outro (Play --> fade out)
|----------------
|----------------
|----------------
|-0-5-5-7-8-7-5-


Suggest correction
Give kudos to tab author, rate the tab!
1 2 3 4 5
comments
print report bad tab
guest
Wanna post a correction for this tab? Suggest correction