Oops, an error
Loading. Please wait.

In Deaths Sleep Tab

version 1
version 1

Whole song

1,054 views 1 this week
no commentswrite comment
1 2 3 4 5
please rate
add to favorites
launch autoscroll
font size
0
reset
how to read this tab
guitar tuner
Autoscroll
slow
fast
+/-
esc
set tempo
stop
Help us to improve Ultimate-Guitar.com Take our survey!
×
Contributor
dudeboy386 2,423
Band: Dismember
Song: In Death's Sleep
Album: Like An Everflowing Stream (1991)
Label: Nuclear Blast

Tuning C F A# D# G C


b = bend                p = pull off
h = half                h = hammer on
f = full                q = quarter
r = release             t = tap
/ = slide up            \ = slide down
ah = atificial harmonic  ~ = vibrato
tr = trill

Riff 1

(0:00-0:46)
|--------------------------------------------------------------------------|
|--------------------------------------------------------------------------|
|----------------------------------------5------------------5--------------|
|------------2-3----------------2-3---------3-2bhr-------------3-2bhr------|
|-2--2--3--1------3-2--2--3---1-----3-2---------------3--2---------------3-|
|-0-----1---------1-0-----1---------1-0---------------1--0---------------1-|
|
|--------------------------------------------------------------------------|
|--------------------------------------------------------------------------|
|----------------------------------------5------------------5--------------|
|------------2-3---------------2-3----2-----3-2bhr-------2-----3-2bhr------|
|-2--2--3--1------3-2--2--3--1------3-----------------3------------------3-|
|-0-----1---------1-0-----1---------1-----------------1------------------1-|


continued

---------------------------------------|
---------------------------------------|
---------------------------------------|Gtr 1
------------2-3---------------2-3------|
-2--2--3--1------3-2--2--3--1------3---|
-0-----1---------1-0-----1---------1---|

---------------------------------------|
---------------------------------------|
---------------------------------------|Gtr 2
-------------2-3--------------2-3------|
-2--2--3---1-----3-2--2--3--1------3---|
-0-----1---------1-0-----1---------1---|

Riff 2

(0:47-1:21)
|----------------------------------------------------------------|
|----------------------------------------------------------------|
|----------------------------------------------------------------|Gtr 1
|-0-0-7-0-8-0-7-0-10-0-8-0-10-0-8-0-0-7-0-8-0-7-0-10-0-7-0-8-0-7-|
|----------------------------------------------------------------|
|----------------------------------------------------------------|
|
|----------------------------------------------------------------|
|----------------------------------------------------------------|
|----------------------------------------------------------------|Gtr2
|-------------------------------7-7------------------------------|
|-5-5-5-5-5-5-5-5-5-5-5-5-5-5-5-5-5------------------------------|
|----------------------------------------------------------------|

|----------------------------------------------------------------|
|----------------------------------------------------------------|
|----------------------------------------------------------------|Gtr 1
|----------------------------------------------------------------|
|-0-0-7-0-8-0-7-0-10-0-8-0-10-0-8-0-0-7-0-8-0-7-0-10-0-7-0-8-0-7-|
|----------------------------------------------------------------|
|
|----------------------------------------------------------------|
|----------------------------------------------------------------|
|----------------------------------------------------------------|Gtr 2
|----------------------------------------------------------------|
|---------------------------------7-7----------------------------|
|-5-5-5-5-5-5-5-5-5-5-5-5-5-5-5-5-5-5----------------------------|

|----------------------------------------------------------------|
|----------------------------------------------------------------|
|----------------------------------------------------------------|Gtr 1
|-0-0-7-0-8-0-7-0-10-0-8-0-10-0-8-0-0-7-0-8-0-7-0-10-0-7-0-8-0-7-|
|----------------------------------------------------------------|
|----------------------------------------------------------------|
|
|----------------------------------------------------------------|
|----------------------------------------------------------------|
|----------------------------------------------------------------|Gtr 2
|-------------------------------7-7------------------------------|
|-5-5-5-5-5-5-5-5-5-5-5-5-5-5-5-5-5------------------------------|
|----------------------------------------------------------------|

|----------------------------------------------------------------|
|----------------------------------------------------------------|
|----------------------------------------------------------------|Gtr 1
|----------------------------------------------------------------|
|-0-0-7-0-8-0-7-0-10-0-8-0-10-0-8-0-0-7-0-8-0-7-0-10-0-7-0-8-0-7-|
|----------------------------------------------------------------|
|
|----------------------------------------------------------------|
|----------------------------------------------------------------|
|----------------------------------------------------------------|Gtr 2
|----------------------------------------------------------------|
|---------------------------------7-7----------------------------|
|-5-5-5-5-5-5-5-5-5-5-5-5-5-5-5-5-5-5----------------------------|


|----------------------------------------------------------------|
|----------------------------------------------------------------|
|----------------------------------------------------------------|Gtr 1
|----------------------------------------------------------------|
|----------------------------------------------------------------|
|-0-0-7-0-8-0-7-0-10-0-8-0-10-0-8-0-0-7-0-8-0-7-0-10-0-7-0-8-0-7-|
|
|----------------------------------------------------------------|
|----------------------------------------------------------------|
|----------------------------------------------------------------|Gtr 2
|----------------------------------------------------------------|
|---------------------------------2-2----------------------------|
|-0-0-0-0-0-0-0-0-0-0-0-0-0-0-0-0-0-0----------------------------|


|----------------------------------------------------------------|
|----------------------------------------------------------------|
|----------------------------------------------------------------|Gtr 1
|----------------------------------------------------------------|
|-0-0-7-0-8-0-7-0-10-0-8-0-10-0-8-0-0-7-0-8-0-7-0-10-0-7-0-8-0-7-|
|----------------------------------------------------------------|
|
|----------------------------------------------------------------|
|----------------------------------------------------------------|
|----------------------------------------------------------------|Gtr 2
|----------------------------------------------------------------|
|---------------------------------7-7----------------------------|
|-5-5-5-5-5-5-5-5-5-5-5-5-5-5-5-5-5-5----------------------------|


1st Solo backing - 4 times

(1:21-1:38)
|-----------------------------|
|-----------------------------|
|-----------------------------|
|-7--10--3-2-----3--6---------|
|-7--10------5-3-3--6--3p2----|
|-5--8-----------1--4------3--|

Riff 3 - 2 times

(1:39-1:45)
|----------------------------------|
|----------------------------------|
|----------------------------------|Gtr 1
|-5---6---5---4---5---6---5---4----|
|-5---6---5---4---5---6---5---4----|
|-3---4---3---2---3---4---3---2----|
|
|----------------------------------|
|----------------------------------|
|----------------------------------|Gtr 2
|---5---6---5---4---5---6---5---4--|
|--5---6---5---4---5---6---5---4---|
|-3---4---3---2---3---4---3---2----|

Riff 4 - 4 times

(1:45-1:57)
|--------------------------------------------------|
|--------------------------------------------------|
|-----------------44445555-------------------------|
|-------------2222---------------------------------| gtr 1
|---------3333--------------------333322223333-----|
|-00005555----------------00005555------------1111-|

|--------------------------------------------------|
|--------------------------------------------------|
|-------------222244445555-------------------------|
|--------------------------------------------------| gtr 2
|---------3333--------------------333322223333-----|
|-00005555----------------00005555------------1111-|


Riff 5 - 2 times

(1:58-2:01)
|---------------------------------------------|
|---------------------------------------------|
|---------------------------------------------|
|------------------8899-----------------9988--|
|---------------------------------------------|
|-777777-8-6666666------777777-8-666666-------|

Repeat Riff 3 - 2 times
(2:02-2:07)


Repeat Riff 4 - 4 times
(2:08-2:20)

Riff 6 - 4 times

(2:20-2:36)
|---------------------|
|---------------------|
|---------------------|
|-9-10-8--9-10-9-8-9--|
|-7-10-6--7-8--7-6-7--|
|-7-8--6--7-8--7-6-7--|

Riff 7A - 4 times

(2:36-2:59)
|---------------------------------|
|---------------------------------|
|---------------------------------|
|---------------------------------|
|---------------------2233--2233--|
|-11111133223322000000----55------|


Riff 8 - 4 times

(2:59-3:18)
|------------------------------------------------------------------|
|------------------------------------------------------------------|
|------------------------------------------------------------------|
|------------------------------------------------------------------|
|---------2222222233333333--------33333333-------------------------|
|-00000000----------------11111111--------111111113333333344444444-|
  ................................................................

Riff 7B - 2 times

(3:19-3:23)
|-------------------------------------|
|-------------------------------------|
|-------------------------------------|
|-------------------------------------|
|-------------------------2233--2tr3--|
|-111111332211332211000000----55------|


Riff 9 - 4 times

(3:24-3:45)
|----------------------------------------------|
|----------------------------------------------|
|----------------------------------------------|
|----------------------------------------------|
|---------5/7/8\7-5/7/8\7---------5/7\6--5555--|
|-000000--3/5/6\5-3/5/6\5--000000-3/5\4--3333--|
  ......                   ......        ....


Fill 1

(3:46-3:48)
|-------------|
|-------------|
|-------------|
|-------------|
|-2--5-7-8-7--|
|-0--3-5-6-5--|

Repeat Riff 6 - 8 times (4 times with 2nd solo)
(3:48-4:21)


Repeat Riff 7A - 4 times
(4:21-4:32)

Riff 10 - 4 times (3 times with 3rd solo)

(4:33-5:08)
|------------------------------------------|
|------------------------------------------|
|------------------------------------------|
|-4--5-5--5\4-4----------------------------|
|---------3\2-2--5-5--4-4------2-2h3p2-----|
|----------------3-3--2-2--2-3---------3-2-|


End.
comments
We did not receive enough feedback on this tab! Please rate:
print report bad tab
1 2 3 4 5
I want to post or [tab]
guest
You may want to rate the tab now too:
select rating
Please do not post tabs as comments. Select "correction" instead!