Oops, an error
Loading. Please wait.

Killing Compassion Tab

version 1
version 1

Whole song

Interactive

235 views 1 this week
no commentswrite comment
1 2 3 4 5
please rate
add to favorites
launch autoscroll
font size
0
reset
how to read this tab
guitar tuner
Tab Pro tools
  • play this tab
  • loop segment
  • change instrument
  • show fretboard
  • metronome
Autoscroll
slow
fast
+/-
esc
set tempo
stop
       D I S M E M B E R  -  K I L L I N G  C O M P A S S I O N
                       From the Album DEATH METAL
                      Copyright 1997 NUCLEAR BLAST
 
                         Version 1.0 - JUNE '02

Transcribed by: death8699

For Questions, Comments, Newest Version, or Corrections contact
 death8699: at ArchEnemies@aol.com

Check Out Death8699.com, With More Transcriptions On It:
 http://www.death8699.com

.  - palm mute                  /  - slide up to
\  - slide down to              ~  - vibrato
"  - tremelo picking           ( ) - ghost note
b  - bend                       h  - hammer-on
fb - full bend (1 step)         p  - pull-off
hb - half bend (1/2 step)       r  - release a bend
t  - tapping                    ah - artificial harmonic

Tune Gtr to C

--KILLING COMPASSION--

[Riff A]
[--------------------------------------------------]
[--------------------------------------------------]
[*------------------------------------------------*]GTR 1
[*------------------------------------------------*] 
[--7--------8--------7--------8--------5__7--8__5--]
[-----0--0-----0--0-----0--0-----0--0----h----p----]
      .  .     .  .     .  .     .  .
[--------------------------------------------------]
[--------------------------------------------------]
[*------------------------------------------------*]GTR 2
[*------------------------------------------------*]
[--------------------------------------2-----2-----]
[--------------------------------------0-----0-----]

[--------------------------------------------------]
[--------------------------------------------------]
[*------------------------------------------------*]GTR 1
[*------------------------------------------------*] 
[--7--------8--------7--------8--------7__5--8~----]
[-----0--0-----0--0-----0--0-----0--0----h---------]

[--------------------------------------------------]
[--------------------------------------------------]
[*------------------------------------------------*]GTR 2
[*------------------------------------------------*]
[--------------------------------------------2-----]
[--------------------------------------------0-----]

[--------------------------------------------------]
[--------------------------------------------------]
[*------------------------------------------------*]GTR 1
[*------------------------------------------------*] 
[--7--------8--------7--------8--------5__7--8__5--]
[-----0--0-----0--0-----0--0-----0--0----h----p----]
      .  .     .  .     .  .     .  .

[--------------------------------------------------]
[--------------------------------------------------]
[*------------------------------------------------*]GTR 2
[*------------------------------------------9-(9)-*]
[--------------------------------------X-X--7-(7)--]
[--------------------------------------X-X--7-(7)--]

[--------------------------------------------------]
[--------------------------------------------------]
[*------------------------------------------------*]GTR 1
[*------------------------------------------------*] 
[--7--------8--------7--------8--------------------]
[-----0--0-----0--0-----0--0-----0--0--0_1-3_1-0---]
      .  .     .  .     .  .     .  .   h   p  .

[--------------------------------------------------]
[--------------------------------------------------]
[*------------------------------------------------*]GTR 2
[*------------------------------------------------*]
[--------------------------------------------------]
[--------------------------------------0--/X\--0---]
                                         sl sl .


Play Riff A 1 time


[Riff B]
[-----------------------------|-----------------------------]
[-----------------------------|-----------------------------]
[*----------------------------|----------------------------*]GTR 1
[*----------------------------|----------------------------*] 
[--5-------4------------------|-5-------4-------------------]
[-----222-----222-0--2--3--0--|----222-----222--0--3--0--2--]
      ...     ... .  .  .  .       ...     ...  .  .  .  .

[-----------------------------|-----------------------------]
[-----------------------------|-----------------------------]
[*----------------------------|----------------------------*]GTR 2
[*----------------------------|----------------------------*] 
[--5-------4------------------|-5-------4-------------------]
[-----222-----222-0--2--3--0--|----222-----222--0--3--0--2--]
      ...     ... .  .  .  .       ...     ...  .  .  .  .

[-----------------------------|-----------------------------]
[-----------------------------|-----------------------------]
[*----------------------------|----------------------------*]GTR 1
[*----------------------------|----------------------------*] 
[--5-------4------------------|-4-------5-------------------]
[-----222-----222-0--2--3--0--|----222-----222--0--3--2--1--]
      ...     ... .  .  .  .       ...     ...  .  .  .  .

[-----------------------------|-----------------------------]
[-----------------------------|-----------------------------]
[*----------------------------|----------------------------*]GTR 2
[*----------------------------|----------------------------*] 
[--5-------4------------------|-4-------5-------------------]
[-----222-----222-0--2--3--0--|----222-----222--0--3--2--1--]
      ...     ... .  .  .  .       ...     ...  .  .  .  .


Play Riff B 1 time
Play Riff A 1 time
Play Riff B 2 times


[Riff C]
[-------------------------------------------------]
[-------------------------------------------------]
[*-----------------------------------------------*]GTR 1
[*-----------------------------------------------*] 
[--2--3---------------2-------3-------3--2-----2~-]
[--0--1----0"----000-----000-----000--------1-----]
   .       .     ...     ...     ...        .

[-------------------------------------------------]
[-------------------------------------------------]
[*-----------------------------------------------*]GTR 2
[*-----------------------------------------------*] 
[--2--3---------------2-------3-------3--2-----2~-]
[--0--1----0"----000-----000-----000--------1-----]
   .       .     ...     ...     ...        .

[-------------------------------------------------]
[-------------------------------------------------]
[*-----------------------------------------------*]GTR 1
[*-----------------------------------------------*] 
[--2--3---------------7--8------5/7----------3----]
[--0--1----0"----000--5--6--6"--3/5---5"--0--1_0--]
   .       .     ...  .     .    sl   .   .   p

[-------------------------------------------------]
[-------------------------------------------------]
[*-----------------------------------------------*]GTR 2
[*-----------------------------------------------*] 
[--2--3---------------7--8------5/7----------3----]
[--0--1----0"----000--5--6--6"--3/5---5"--0--1_0--]
   .       .     ...  .     .    sl   .   .   p


Play Riff C 3 times


[Riff D]
[----------------------------|---------------------------]
[----------------------------|---------------------------]
[*---------------------------|--------------------------*]GTR 1
[*---------------------------|--------------------------*] 
[--5------4------------------|-5------4------------------]
[-----2"-----2"--0--2--3--0--|----2"-----2"--0--3--0--2--]
      .      .   .  .  .  .       .      .   .  .  .  .
[----------------------------|---------------------------]
[----------------------------|---------------------------]
[*---------------------------|--------------------------*]GTR 2
[*---------------------------|--------------------------*]
[----------------------------|---------------------------]
[----------------------------|---------------------------]

[----------------------------|---------------------------]
[----------------------------|---------------------------]
[*---------------------------|--------------------------*]GTR 1
[*---------------------------|--------------------------*] 
[--5------4------------------|-4------5------5--4--2-----]
[-----2"-----2"--0--2--3--0--|----2"-----2"-----------3--]
      .      .   .  .  .  .       .      .    

[----------------------------|---------------------------]
[----------------------------|---------------------------]
[*---------------------------|--------------------------*]GTR 2
[*---------------------------|--------------------------*]
[----------------------------|---------------------------]
[----------------------------|---------------/X\---------]
                                            sl sl 


Play Riff A   2 times
Play Riff B   2 times
Play Riff C 3.5 times


[Ending]
[------------------------]
[------------------------]
[*----------------------*]GTR 1
[*-5-------4-------2--4-*] 
[--3-------2-------0--2--]
[-----000-----000--------]
      ...     ...

[------------------------]
[------------------------]
[*----------------------*]GTR 2
[*-5-------4-------2--4-*] 
[--3-------2-------0--2--]
[------------------------]

Check Out Death8699.com, With More Transcriptions On It:
 http://www.death8699.co
comments
We did not receive enough feedback on this tab! Please rate:
print report bad tab
1 2 3 4 5
I want to post or [tab]
guest
You may want to rate the tab now too:
select rating
Please do not post tabs as comments. Select "correction" instead!