Oops, an error
Loading. Please wait.

Silent Are The Watchers Tab

version 1
version 1

Whole song

Interactive

875 views 3 this week
no commentswrite comment
1 2 3 4 5
please rate
add to favorites
launch autoscroll
font size
0
reset
how to read this tab
guitar tuner
Autoscroll
slow
fast
+/-
esc
set tempo
stop
Help us to improve Ultimate-Guitar.com Take our survey!
×
Author
Difficulty
intermediate
-------------------------------------------------------------------------------
                             SILENT ARE THE WATCHERS - Dismember
-------------------------------------------------------------------------------
Tabbed by: thesun.is.humming@gmail.com

Tuning: C

Fig. 1
e|--guitar-1------------------------------------------------------------|
B|------------10b12r10--------------------------12-10-------------------|
G|-/9-12-11-9------------12-11-12~-/9-12-11-9---------12-11-12-11-9--8--|
D|----------------------------------------------------------------------|
A|----------------------------------------------------------------------|
E|----------------------------------------------------------------------|
 |                                                                      |
e|--guitar-2------------------------------------------------------------|
B|--------------12b15r12------------------------15-13-------------------|
G|-/12-16-14-12----------16-14-16~-/12-16-14-12-------16-14-16-14-12-11-|
D|----------------------------------------------------------------------|
A|----------------------------------------------------------------------|
E|----------------------------------------------------------------------|

Fig. 2
e-----------------------------------------------------------------------|
B-----------------------------------------------------------------------|
G-9-----9-----9-----------9-----9---------------------------------------|
D-9-----9-----9-----------9-----9------------------10-----10-----10-----|
A-7-----7-----7-7"9"10"9"-7-----7-----7"9"10"9"----10-----10-----10-----|
E---000---000---------------000---000----------10"-8--000-8--000-8--000-|
pm  ...   ...               ...   ...                 ...    ...    ...


e-----------------------------------------------|
B-----------------------------------------------|
G-----------------------------------------------|
D--------------10-----10------------------------|
A-10+--9+--10+-10-----10-----10-12-10-9h10p9----|
E----0---0-----8--000-8--000-----------------10-|
     .   .        ...    ...

Fig. 3
e---------------------------------------------------------------------------|
B---------------------------------------------------------------------------|
G-9-----9-----9-----9-----9\8-8/9-----9-----9-----9-----9-----9/12-12\7-----|
D-9-----9-----9-----9-----9\8-8/9-----9-----9-----9-----9-----9/12-12\7-----|
A-7-----7-----7-----7-----7\6-6/7-----7-----7-----7-----7-----7/10-10\5-----|
E---000---000---000---000---------000---000---000---000---000-----------000-|
    ...   ...   ...   ...         ...   ...   ...   ...   ...           ...

                               transition 1
e-----------------------------|-----------------------------|
B-----------------------------|-----------------------------|
G-7-----7-----7\5-----5-----5-|-9-----9-----9-----9-----9\7-|
D-7-----7-----7\5-----5-----5-|-9-----9-----9-----9-----9\7-|
A-5-----5-----5\3-----3-----3-|-7-----7-----7-----7-----7\5-|
E---000---000-----000---000---|---000---000---000---000-----|
    ...   ...     ...   ...       ...   ...   ...   ...

Fig. 4             transition 2
e-----------------|--------------------|
B-----------------|--------------------|
G-----------------|-8-----12-----11/12-|
D-2---------------|-8-----12-----11/12-|
A-2--7-10\-----5~-|-6-----10-----9-/10-|
E-0--------3-7----|---000----000-------|

Fig. 1

Fig. 3

Fig. 4

Transition 2

Fig. 5
e|----------------------------------------------------------------------|
B|----------------12----------------------12----------------------------|
G|-12-11-10-12-10----10-12-11-10-12-11-10----10-------------------11----|
D|----------------------------------------------12-11-10-12-11-10----10-|
A|----------------------------------------------------------------------|
E|----------------------------------------------------------------------|
 |
e|----------------------------------------------------------------------|
B|----------------------------------------------------------------------|
G|-9--------------------12----------------------------------------------|
D|-9--------------------12----------------------9-----------------------|
A|-7--------------------10----------------------9-----------------------|
E|----------------------------------------------7-----------------------|

e|-------------------------|
B|-------------------------|
G|-------------------11----|
D|-12-11-10-12-11-10----10-|
A|-------------------------|
E|-------------------------|
 |                         |
e|-------------------------|
B|-------------------------|
G|-------------------------|
D|-12----------------------|
A|-12----------------------|
E|-10----------------------|

Fig. 6  (listen to song for rhythm)
e------------------------|
B------------------------|
G-9xxxxxx9xxxxxx9x9x9x9x-|
D-9xxxxxx9xxxxxx9x9x9x9x-|
A-7xxxxxx7xxxxxx9x9x9x9x-|
E---------------7x7x7x7x-|

Fig. 3 (under solo)

Fig. 7 (listen to song for timing)
                  1st ending       2nd ending
e|----------------|----------------|-------------------|
B|----------------|----------------|-------------------|
G|----------------|----------------|-------------------|
D|----------------|----------------|-------------------|
A|-/7----10-------|10----8---------|-10----8-----------|
E|----------------|----------------|-------------------|
 |                |                |                   |
e|----------------|----------------|-------------------|
B|----------------|----------------|-------------------|
G|----------------|----------------|-------11b12r11----|
D|----------7b9r7-|------7b9r7-5-4-|12tr14----------14-|
A|-/7----10-------|9---------------|-------------------|
E|----------------|----------------|-------------------|

Fig. 4

e|-------------------------------|
B|-------------------------------|
G|-------------------------------|
D|--------------------2----------|
A|-10-12-10-9h10p9----2-let-ring-|
E|-----------------10-0----------|


| /  slide up
| \  slide down
| h  hammer-on
| p  pull-off
| ~  vibrato
| +  harmonic
| x  Mute note
| tr Trill
| "  Tremolo pick
| .  Palm mute
===============================================================================
Suggest correction
What's this?
You can suggest a correction to this tab. Community and Mods will review your correction and vote to approve or reject it.
comments
We did not receive enough feedback on this tab! Please rate:
print report bad tab
1 2 3 4 5
guest
You may want to rate the tab now too:
select rating
Please do not post tabs as comments. Select "correction" instead!