Oops, an error
Loading. Please wait.

Soon To Be Dead Tab

version 1
version 1

Whole song

Interactive

1,082 views 6 this week
no commentswrite comment
1 2 3 4 5
3 more votes to show rating
add to favorites
launch autoscroll
font size
0
reset
how to read this tab
guitar tuner
Autoscroll
slow
fast
+/-
esc
set tempo
stop
Help us to improve Ultimate-Guitar.com Take our survey!
×
             D I S M E M B E R  -  S O O N  T O  B E  D E A D
                From the Album LIKE AND EVERFLOWING STREAM
                       Copyright 1991 NUCLEAR BLAST

                           Version 1.0 - JUNE '02

Transcribed by: death8699

For Questions, Comments, Newest Version, or Corrections contact
 death8699: at ArchEnemies@aol.com

Check Out Death8699.com, With More Transcriptions On It:
 http://www.death8699.com

.  - palm mute                  /  - slide up to
\  - slide down to              ~  - vibrato
"  - tremelo picking           ( ) - ghost note
b  - bend                       h  - hammer-on
fb - full bend (1 step)         p  - pull-off
hb - half bend (1/2 step)       r  - release a bend
t  - tapping                    ah - artificial harmonic

Tune Gtr to C

--SOON TO BE DEAD--

[Fill 1]
[------------------------------]
[------------------------------]
[*----------------------------*]GTR 1
[*----------------------------*] 
[--5--8--5--7--5--8--7--5------]
[--3--6--3--5--3--6--5--3------]
                        *
[------------------------------]
[------------------------------]
[*----------------------------*]GTR 2
[*----------------------------*] 
[--5--8--5--7--5--8--7--5------]
[--3--6--3--5--3--6--5--3------]
                        *


[Riff A]
[----------------------------|--------------------------------------]
[----------------------------|--------------------------------------]
[*---------------------------|-------------------------------------*]GTR 1
[*---------------------------|-------------------------------------*] 
[--5------5-----5----3--6--5-|-4------4------4-/-8------8-------8\--]
[--3--3"--3--3"-3----1--4--3-|-2--2"--2--2"--2-/-6--6"--6---6"--6\--]
      .      .                    .      .     sl   .       .    sl

[----------------------------|--------------------------------------]
[----------------------------|--------------------------------------]
[*---------------------------|-------------------------------------*]GTR 2
[*---------------------------|-------------------------------------*] 
[--5------5-----5----3--6--5-|-4------4------4-/-8------8-------8\--]
[--3--3"--3--3"-3----1--4--3-|-2--2"--2--2"--2-/-6--6"--6---6"--6\--]
      .      .                    .      .     sl   .       .    sl

[----------------------------|--------------------------------------]
[----------------------------|--------------------------------------]
[*---------------------------|-------------------------------------*]GTR 1
[*---------------------------|-------------------------------------*] 
[--5------5-----5----3--6--5-|-4------4------4/-4"----5\------------]
[--3--3"--3--3"-3----1--4--3-|-2--2"--2--2"--2/--------sl-----------]
      .      .                    .      .    sl

[----------------------------|--------------------------------------]
[----------------------------|--------------------------------------]
[*---------------------------|-------------------------------------*]GTR 2
[*---------------------------|-------------------------------------*] 
[--5------5-----5----3--6--5-|-4------4------4/-4"----5\------------]
[--3--3"--3--3"-3----1--4--3-|-2--2"--2--2"--2/--------sl-----------]
      .      .                    .      .    sl


Play Riff A 1 time


[Riff B]
[-----------------------------------------------]
[-----------------------------------------------]
[*---------------------------------------------*]GTR 1
[*-9------8---9--------------------------------*] 
[--7------6---7-----------10__11--10--8__10-----]
[--7---0--6---7---0--/X\-----h---------h-----0--]
                    sl sl

[-----------------------------------------------]
[-----------------------------------------------]
[*---------------------------------------------*]GTR 2
[*-9------8---9--------------------------------*] 
[--7------6---7-----------10__11--10--8__10-----]
[--7---0--6---7---0--/X\-----h---------h-----0--]
                    sl sl

[-----------------------------------------------]
[-----------------------------------------------]
[*---------------------------------------------*]GTR 1
[*-9------8---\---------------------10"--------*] 
[--7------6---\--6--3------7"--10"-------10"----]
[--7---0--6---\--4--1------------------------0--]
              sl

[-----------------------------------------------]
[-----------------------------------------------]
[*---------------------------------------------*]GTR 1
[*-9------8---\---------------------10"--------*] 
[--7------6---\--6--3------7"--10"-------10"----]
[--7---0--6---\--4--1------------------------0--]
              sl


[Riff C]
[--------------------------------------------]
[--------------------------------------------]
[*------------------------------------------*]GTR 1
[*------------------------------------------*] 
[------7------------------------------7__5---]
[--0"-----0"--6__5__3__0--0"----5__6----p----]
   .      .     p  p  p   .       h

[--------------------------------------------]
[--------------------------------------------]
[*------------------------------------------*]GTR 2
[*------------------------------------------*] 
[------7------------------------------7__5---]
[--0"-----0"--6__5__3__0--0"----5__6----p----]
   .      .     p  p  p   .       h

[--------------------------------------------]
[--------------------------------------------]
[*------------------------------------------*]GTR 1
[*------------------------------------------*] 
[------7-------------------------7_5--7"8"---]
[--0"-----0"--6__5__3__0--0"-5_6--p-6"----8"-]
   .      .     p  p  p    .  h   

[--------------------------------------------]
[--------------------------------------------]
[*------------------------------------------*]GTR 2
[*------------------------------------------*] 
[------7-------------------------7_5--7"8"---]
[--0"-----0"--6__5__3__0--0"-5_6--p-6"----8"-]
   .      .     p  p  p    .  h   


Play Riff C 1 time
Play Riff A 2 times


[Riff D]
[-------------------------------------------]
[-------------------------------------------]
[*-----------------------------------------*]GTR 1
[*-----------------------------------------*]
[--7------7------7----7"------5"------7__8--]
[--5--5"--5--5"--5--------8"------6"----h---]
      .      .

[-------------------------------------------]
[-------------------------------------------]
[*-----------------------------------------*]GTR 2
[*-----------------------------------------*]
[--7------7------7----7"------5"------7__8--]
[--5--5"--5--5"--5--------8"------6"----h---]
      .      .

[-------------------------------------------]
[-------------------------------------------]
[*-----------------------------------------*]GTR 1
[*-----------------------------------------*]
[--8------8------8----7"--8"--7"------5__7--]
[--6--6"--6--6"--6----------------6"----h---]
      .      .

[-------------------------------------------]
[-------------------------------------------]
[*-----------------------------------------*]GTR 2
[*-----------------------------------------*]
[--8------8------8----7"--8"--7"------5__7--]
[--6--6"--6--6"--6----------------6"----h---]
      .      .


Play Riff D 1 time


[Fill 2]
[--------------------------------]
[--------------------------------]
[*------------------------------*]GTR 1
[*------------------------------*]
[--5------8------5------8--7--5--]
[--3--3"--6--6"--3--3"--6--5--3--]
      .      .      .

[--------------------------------]
[--------------------------------]
[*------------------------------*]GTR 2
[*------------------------------*]
[--5------8------5------8--7--5--]
[--3--3"--6--6"--3--3"--6--5--3--]
      .      .      .


Play Riff B 2 times


[Riff E]
[------------------------------------------------------------------------]
[------------------------------------------------------------------------]
[*----------------------------------------------------------------------*]GTR 1
[*----------------------------------------------------------------------*]
[------7"--6"--7"------10"--9"--10"------7"--5"----------5"--------------]
[--0"--------------8"----------------8"----------8"--7"------8"--7"--5"--]

[------------------------------------------------------------------------]
[------------------------------------------------------------------------]
[*----------------------------------------------------------------------*]GTR 2
[*----------------------------------------------------------------------*]
[------7"--6"--7"------10"--9"--10"------7"--5"----------5"--------------]
[--0"--------------8"----------------8"----------8"--7"------8"--7"--5"--]


Play Riff E 1 time


[Riff F]
[----------------------------------------------------]
[----------------------------------------------------]
[*--------------------------------------------------*]GTR 1
[*--------------------------------------------------*]
[-----7--9--10-----10--9--7--6~----------------------]
[--0------------8--------------------8"--7"--5"--3"--]

[----------------------------------------------------]
[----------------------------------------------------]
[*--------------------------------------------------*]GTR 2
[*--------------------------------------------------*]
[-----7--9--10-----10--9--7--6~----------------------]
[--0------------8--------------------8"--7"--5"--3"--]

[----------------------------------------------------]
[----------------------------------------------------]
[*--------------------------------------------------*]GTR 1
[*--------------------------------------------------*]
[-----7--9--10-----10--9--7--10------7"--5"----------]
[--0------------8------------8---------------8"--7"--]

[----------------------------------------------------]
[----------------------------------------------------]
[*--------------------------------------------------*]GTR 2
[*--------------------------------------------------*]
[-----7--9--10-----10--9--7--10------7"--5"----------]
[--0------------8------------8---------------8"--7"--]


[Riff G]
[-------------------------------------------]
[-------------------------------------------]
[*-----------------------------------------*]GTR 1
[*-----------------------------------------*]
[-----2--3----/7--8----/10--11------11--10\-]
[--0--------5-sl-----8-sl-------12--------sl]

[-------------------------------------------]
[-------------------------------------------]
[*-----------------------------------------*]GTR 2
[*-----------------------------------------*]
[-----2--3----/7--8----/10--11------11--10\-]
[--0--------5-sl-----8-sl-------12--------sl]


Play Riff G 7 times


[Ending]
[---------------------------------------------]
[---------------------------------------------]
[*-------------------------------------------*]GTR 1
[*-------------------------------------------*]
[-----2--3----/7--8-----10--11\--3--6--5--2---]
[--0--------5-sl-----8--------sl-1--4--3--0---]

[---------------------------------------------]
[---------------------------------------------]
[*-------------------------------------------*]GTR 2
[*-------------------------------------------*]
[-----2--3----/7--8-----10--11\--3--6--5--2---]
[--0--------5-sl-----8--------sl-1--4--3--0---]

Check Out Death8699.com, With More Transcriptions On It:
 http://www.death8699.co
Suggest correction
Give kudos to tab author, rate the tab!
1 2 3 4 5
comments
print report bad tab
guest
You may want to rate the tab now too:
select rating
Wanna post a correction for this tab? Suggest correction