Oops, an error
Loading. Please wait.

Under A Blood Red Sky Ending Section Lead Tab

1,222 views 3 this week
no commentswrite comment
1 2 3 4 5
please rate
add to favorites
launch autoscroll
font size
0
reset
how to read this tab
guitar tuner
Autoscroll
slow
fast
+/-
esc
set tempo
stop
Help us to improve Ultimate-Guitar.com Take our survey!
×
The reason I'm only tabbing this part of the song out is because this is the only part 
the song I cared to learn, and some dude at a forum I type in asked me to tab it out for him!


So without further adieu, here's my tab.


Guitars are tuned to C standard in this song (all the songs from this album are tuned that way.)

Here's the guitar, starting at 3:40. at the beginning, I'm pretty sure it's two guitars 
in octaves, but I've Arranged it for one guitar.


-C|---------------------------------------|
-G|---------------------------------------|
Eb|--10--------9---------7------9------11-|
Bb|---------------------------------------|
-F|--8---------7---------5------7------9--|
-C|---------------------------------------|

-C|----------------------------------------------------|
-G|-------------------------------------10-------------|
Eb|--7---------9---------11-----9-----------10--9---10-|
Bb|-------------------------------------7--------------|
-F|--5---------7---------9------7-----------8---7---8--|
-C|----------------------------------------------------|


The Maiden-esque lick! (haven't figured out what the second guitarist plays to harmonize with it):

-C|----------------------------------------------------------------|
-G|----------------------------------------------------------------|
Eb|----7-----7---10---7---9h10p9--------7-----7---10---7-----------|
Bb|------------------------------10-----------------------7--8--10-|
-F|----------------------------------------------------------------|
-C|----------------------------------------------------------------|

-C|----------------------------------------------------------------|
-G|----------------------------------------------------------------|
Eb|----7-----7---10---7---9h10p9--------/12----10--9--10---9--7----|
Bb|------------------------------10------------------------------9-|
-F|----------------------------------------------------------------|
-C|----------------------------------------------------------------|


Back to the Octave Harmonizing:

-C|----------------------------------------------------|
-G|----------------------------------------------------|
Eb|--7---------9---------10-----9--------7----9---10---|
Bb|----------------------------------------------------|
-F|--5---------7---------8------7--------5----7---8----|
-C|----------------------------------------------------|


-C|--------------------------------------|
-G|--------------------------------------|
Eb|--10--------9---------7------9--------|
Bb|--------------------------------------|
-F|--8---------7---------5------7*-------|
-C|--------------------------------------|

*-hold that note and then gradually bend it.


Repeat Maiden-esque Riff a few times

Ending thing:
-C|------------------------|
-G|------------------------|
Eb|--9----7-----9----11----|
Bb|------------------------|
-F|--7----5-----7----9-----|
-C|------------------------|
Suggest correction
Give kudos to tab author, rate the tab!
1 2 3 4 5
comments
print report bad tab
guest
You may want to rate the tab now too:
select rating
Please do not post tabs as comments. Select "correction" instead!