Oops, an error
Loading. Please wait.

Reflection Tab

1,330 views 69 this week
no commentswrite comment
1 2 3 4 5
1 last vote to show rating
add to favorites
launch autoscroll
font size
0
reset
how to read this tab
guitar tuner
Autoscroll
slow
fast
+/-
esc
set tempo
stop
Help us to improve Ultimate-Guitar.com Take our survey!
×
Author
Difficulty
[Intro]

look at me, I will never pass for a perfect bride, or a perfect daughter
e|---------------------------------------------------------------------------|
B|----------------------7----------------------------------------------------|
G|-3-4-6-----3-4-6-6-------6-4-3---------------------------------------------|
D|-------------------------------6--------9-9-9-11--8---6--------------------|
A|---------------------------------------------------------------------------|
E|---------------------------------------------------------------------------|

can it be, i'm not meant to play this part?-Now I see, that if I were truly to be myself,
e|-------------------------------------------------------------5-------------|
B|------------------------7h9---------------2-3-5-----2-3-5-5-------5-3-2----|
G|-3-4-6-----3-4-6-6--6-6--------------------------------------------------4-|
D|---------------------------------------------------------------------------|
A|---------------------------------------------------------------------------|
E|---------------------------------------------------------------------------|

I would break my family's heart...
e|---------------------------------------------------------------------------|
B|---------------------------------------------------------------------------|
G|-7-7-7-9--6----4----2------------------------------------------------------|
D|---------------------------------------------------------------------------|
A|---------------------------------------------------------------------------|
E|---------------------------------------------------------------------------|


[Chorus]

Who is that girl I see? Staring straight-Back at me?-Why is my reflection someone I don't know?
e|-7----7----5-7-9-5----4-5-2------------0-5-------------5--9-9-10-7---5-7---5-7-|
B|-------------------------------------------3-------2-5-------------------------|
G|-------------------------------------------------------------------------------|
D|-------------------------------------------------------------------------------|
A|-------------------------------------------------------------------------------|
E|-------------------------------------------------------------------------------|

Somehow I cannot hide-Who I am-Though I've tried-When will my reflection show Who I am..
e|-7----7----5-7-9-5----4-5-2-----0-5----------------5------9-9-10-7------7-9-5----|
B|-----------------------------------3----------2--5-------------------------------|
G|---------------------------------------------------------------------------------|
D|---------------------------------------------------------------------------------|
A|---------------------------------------------------------------------------------|
E|---------------------------------------------------------------------------------|

 in-sssiiddeeeeee??
e|-7p5---9-------------------------------------------------------------------|
B|---------------------------------------------------------------------------|
G|---------------------------------------------------------------------------|
D|---------------------------------------------------------------------------|
A|---------------------------------------------------------------------------|
E|---------------------------------------------------------------------------|

[outro]

When will my reflection show-Who I am inside?
e|-----5-------9-9-10-7-----7-7-9-5p4--5-------------------------------------|
B|-2-5-----------------------------------------------------------------------|
G|---------------------------------------------------------------------------|
D|---------------------------------------------------------------------------|
A|---------------------------------------------------------------------------|
E|---------------------------------------------------------------------------|


************************************

| h   Hammer-on
| p   Pull-off


************************************
Suggest correction
Give kudos to tab author, rate the tab!
1 2 3 4 5
comments
print report bad tab
guest
You may want to rate the tab now too:
select rating
Wanna post a correction for this tab? Suggest correction