Oops, an error
Loading. Please wait.

Circles Around The Sun chords

version 1
version 1

Whole song

6,991 views 12 this week
1 commentread comment
1 2 3 4 5
x 9
add to favorites
×
Save as Personal and add changes to this tab that will be seen only by you. Learn more ›
×
You can save this tab as Personal to edit and correct it or add notes. All changes will be seen only by you. Learn more »
launch autoscroll
font size
0
reset
transpose
0
reset
display chords
guitar tuner
edit
Autoscroll
slow
fast
+/-
esc
set tempo
stop
Author
Difficulty
Strumming
There is no strumming pattern for this song yet. and get +5 IQ
This is my first tab/song written out, so it might be a little sketchy. The intro 
is pretty close but it might need a little fixing.


Intro:

e|-0-0-0-0-0-0-0-0-0-0-0-0-0-0-0-0-0-0-0-0-0-0-3-3-3-3-3-3-3-3-3-3-3-3-0-0-0-0-0-0-0-0-0-0-0-----|
B|-5-5-5-5-5-5-5-5-5-5-0-1-1-1-1-1-1-1-1-1-1-3-0-0-0-0-0-0-0-0-0-0-0-0-0-3-3-3-3-3-3-3-3-3-3-----|
G|-----------------------------------------------------------------------------------------------|
D|-----------------------------------------------------------------------------------------------|
A|-----------------------------------------------------------------------------------------------|
E|-----------------------------------------------------------------------------------------------|
(x2)

Verse:
             Em                  C
When he was born, the doc said "What's this?"
                G                     D
He's much too small, it's like he's weightless
               Em                   C
When he turned six, they ran some tests 
                      G             D
They said it's for science, it's patriotic 

Chorus:
A                       C               G  (C)
Ah let's send him where no one else has gone
A             C                G   
After all he can not speak or walk
G                     D            
Let's send him at the moon, do circles 'round the Sun
 
             Em                   C
When he was twelve, the time had come then 
              G                 D
And with his eyes, he said he loved them
             Em                  C
In came the suits, in came the government
               G                    D
She stood and cried, she could not keep him 

(Chorus)
 
Chords are the same as the verse for this part:
Hey, hey, hey, hey, hey 
Ho, ho, ho, ho, ho, ho 
Hey, hey, hey, hey, hey 
Oh, oh, oh 
Ho, ho, ho, ho, ho, ho 
Hey, hey, hey, hey, hey 
Oh, oh, oh 
Ho, ho, ho, ho, ho, ho
 
C                  C
But he came back, yeah he came back
C                   C
He came in with a smile as big as the whole world
Em                  G                  A 
The doctors were shocked by his vital signs
                     C
She said would you like to go home now?

(Intro riff)

Harmonica solo chords: Em - G - A - C (x2)
Then a breakdown: C - G - C - G - C - D

(Chorus)

Em
Suggest correction
Creating personal tab
Creating personal tab
You can edit any tab online and save it as your Personal.

You can edit, replace or remove any tab part or add personal notes – all changes will be seen only by you.

Personal tabs can be accessed anytime from any device, even offline.
Learn more »
comments
print report bad tab
1 comment total.
+1 reply
hollycez 10 Jan 11, 2016 09:07 AM

Almost there.
It is CAPO 1.
Tab of the beginning is wrong, I think it is

e|-----0-0-0-0-0-0-----0-0-0-0-0-------0-0-0-0-0----0-0-0-0-0-0-----|
b|-3-5--5-5-5-5-5-5-0-1-1-1-1-1-1-3-5-3-3-3-3-3-3-0-----------------|
g|-------------------------------------------------2-2-2-2-2-2------| x2
d|------------------------------------------------------------------|
a|------------------------------------------------------------------|
E|------------------------------------------------------------------|

Then in the last line of the chorus chords are right except you forgot the last A:

....
G D A X X X X X | XX
Let's send him at the moon, do circles 'round the Sun

In Breakdown there is the initial Em missing.

The rest is ok ;)

guest
You may want to rate the tab now too:
select rating
Wanna post a correction for this tab? Suggest correction