Oops, an error
Loading. Please wait.

Circles Around The Sun Tab

version 1
version 1

Intro

Whole song

11,177 views 78 this week
no commentswrite comment
1 2 3 4 5
excellent!
x 19
add to favorites
launch autoscroll
font size
0
reset
how to read this tab
guitar tuner
Tab Pro tools
  • play this tab
  • loop segment
  • change instrument
  • show fretboard
  • metronome
Autoscroll
slow
fast
+/-
esc
set tempo
stop
Contributor
Difficulty
novice
--| Circles Around The Sun |--| Dispatch |--| Tab |--| Elias Landin |--


|-------------|
|       EADGBe|
|Gsus4: 330033|
|Gsus2: 300033|
|-------------|

Tuning: Standard


                            -| CAPO 1st FRET ON THE RECORDING |-
                             -| NO CAPO ON LIVE PERFORMANCES |-

Intro:

e |-0--0-0-0-0-0-0-0-0-0-0-0-0--0-0-0-0-0-0-0-0-0-0-0-0-0-0---|     |
B |-5--5-5-5-5-5-5-5-5-5-5-0-1--1-1-1-1-1-1-1-1-1-1-1-3-5-3---|     |
G |-----------------------------------------------------------|     |
D |-----------------------------------------------------------|     |
A |-----------------------------------------------------------|     |
E |-----------------------------------------------------------|     |
                                                                    | x2
e |-0-0-0-0-0-0-0-0-0-0-0-0-0--0-0-0-0-0-0-0-0-0-0-0-0--------|     |
B |-3-3-3-3-3-3-3-3-3-3-3-0-----------------------------------|     |
G |-------------------------2--2-2-2-2-2-2-2-2-2-4-2-0--------|     |
D |-----------------------------------------------------------|     |
A |-----------------------------------------------------------|     |
E |-----------------------------------------------------------|     |


            Em
When he was born
              C
The Doc said What's this?
              G
He's much too small
                D
It's like he's weightless

             Em
When he turned six
             C
They ran some tests
                  G
They said it's for science
       D
It's patriotic

 A                      C                G           ( G - Gsus4 - G - Gsus2 - G )
Ah let's send him where no one else has gone
 A            C              G
After all he cannot speak or walk
                       D
Let's send him at the moon
                       A
Do circles 'round the sun

               Em
When he was twelve
               C
The time had come then
              G
And with his eyes
              D
He said he loved them

              Em
In came the suits
               C
In came the government
                G
She stood and cried
               D
She could not keep him


 A                      C                G           ( G - Gsus4 - G - Gsus2 - G )
Ah let's send him where no one else has gone
 A            C              G
After all he cannot speak or walk
                       D
Let's send him at the moon
                       A
Do circles 'round the sun

Em - C - G - D
Em - C - G - D - D

 C
But he came back
 C
Yeah he came back
 C                                            Em
He came back with a smile as big as the whole world

                    G
The doctors where shocked by his vital signs
 D                      A
She said would you like to go home now?


e |-0--0-0-0-0-0-0-0-0-0-0-0-0--0-0-0-0-0-0-0-0-0-0-0-0-0-0---|     |
B |-5--5-5-5-5-5-5-5-5-5-5-0-1--1-1-1-1-1-1-1-1-1-1-1-3-5-3---|     |
G |-----------------------------------------------------------|     |
D |-----------------------------------------------------------|     |
A |-----------------------------------------------------------|     |
E |-----------------------------------------------------------|     |
                                                                    | x2
e |-0-0-0-0-0-0-0-0-0-0-0-0-0--0-0-0-0-0-0-0-0-0-0-0-0--------|     |
B |-3-3-3-3-3-3-3-3-3-3-3-0-----------------------------------|     |
G |-------------------------2--2-2-2-2-2-2-2-2-2-4-2-0--------|     |
D |-----------------------------------------------------------|     |
A |-----------------------------------------------------------|     |
E |-----------------------------------------------------------|     |

Em - G - A - C
Em - G - A - C

----| Chad plays this when they perform the song live, instead of the chords above |----

e |-7-7-7-7--7-7-7----7-7-7-7--7-7-7----7-7-7-7--7-7-7----7-7-7-7--7-7-7-|
B |-8-8-8-8--8-8-8----8-8-8-8--8-8-8----8-8-8-8--8-8-8----8-8-8-8--8-8-8-|
G |-9-9-9-9--9-9-9----7-7-7-7--7-7-7----6-6-6-6--6-6-6----5-5-5-5--5-5-5-|
D |----------------------------------------------------------------------|
A |----------------------------------------------------------------------|
E |----------------------------------------------------------------------|

e |----------------------------------------------------------------------------|
B |----------------------------------------------------------------------------|
G |-4-4--3-3--2-2--0-0---4-4--3-3--2-2--0-0---4-4--3-3--2-2--0-0---2-2-2-2-2-2-|
D |-0-0--0-0--0-0--0-0---0-0--0-0--0-0--0-0---0-0--0-0--0-0--0-0---0-0-0-0-0-0-|
A |----------------------------------------------------------------------------|
E |----------------------------------------------------------------------------|

-----------------------------------------------------------------------------------------


Em - C-G - C-G - C-G - G-D
Em - C-G - C-G - C-G - G-D

 A                      C                G           ( G - Gsus4 - G - Gsus2 - G )
Ah let's send him where no one else has gone
 A            C              G
After all he cannot speak or walk
                       D
Let's send him at the moon
                       A           Em
Do circles 'round the sun
comments
print report bad tab
I want to post or [tab]
guest
You may want to rate the tab now too:
select rating
Please do not post tabs as comments. Select "correction" instead!