Oops, an error
Loading. Please wait.

Out Loud Tab

version 1
version 1

Whole song

108,169 views 48 this week
3 commentsread comments
1 2 3 4 5
x 22
add to favorites
×
Save as Personal and add changes to this tab that will be seen only by you. Learn more ›
×
You can save this tab as Personal to edit and correct it or add notes. All changes will be seen only by you. Learn more »
save as personal
new!
launch autoscroll
font size
0
reset
how to read this tab
guitar tuner
Autoscroll
slow
fast
+/-
esc
set tempo
stop
Author
[Intro]
e|-----x-----------x------------x-----------x--|
B|-----x-----------x------------x-----------x--|
G|-----x-----------x------------x-----------x--|
D|-----x-----------x------------x-----------x--|
A|--7--x--4--4--4--x---------7--x--4--4--4--x--|
E|--5--x--2--2--2--x--0h2/5--5--x--2--2--2--x--|

e|------------x-----------x-----------x-|
B|------------x-----------x-----------x-|
G|------------x-----------x-----7--9--x-|
D|------------x-----------x--7--7--9--x-|
A|---------7--x--4--4--4--x--7--5--7--x-|
E|--0h2/5--5--x--2--2--2--x--5--------x-|

[Verse 1]
e|--------------------------------------------|
B|--------------------------------------------|
G|--------------------------------------------|
D|--7--x--4--4--4--x---------7--x--4--4--4--x-|
A|--7--x--4--4--4--x---------7--x--4--4--4--x-|
E|--5--x--2--2--2--x--0h2/5--5--x--2--2--2--x-|

e|----------------------------------------------------|
B|----------------------------------------------------|
G|----------------------------------------------------|
D|---------7--x--4--4--4--x--------7--7--4--4--4------|
A|---------7--x--4--4--4--x--------7--7--4--4--4------|
E|--0h2/5--5--x--2--2--2--x--0--2--5--5--2--2--2------|

e|---------------------------------------------------|
B|---------------------------------------------------|
G|---------------------------------------------------|
D|---------7--x--4--4--4--x---------7--x--4--4--4--x-|
A|---------7--x--4--4--4--x---------7--x--4--4--4--x-|
E|--0h2/5--5--x--2--2--2--x--0h2/5--5--x--2--2--2--x-|

e|-------------------|
B|-------------------|
G|-----x-----7--9--x-|
D|--7--x--7--7--9--x-|
A|--7--x--7--5--7--x-|
E|--5--x--5--------x-|

[Chorus]
e|----------------------------------------------|
B|----------------------------------------------|
G|--7--x--9--------------------------7--x--9----|
D|--7--x--9--x-----7--x--4--4--4--x--7--x--9--x-|
A|--5--x--7--x-----7--x--4--4--4--x--5--x--7--x-|
E|-----------x--5--5--x--2--2--2--x-----------x-|

e|-------------------------------------------------|
B|-------------------------------------------------|
G|--------------------7--x--9----------------------|
D|--4--x--4--4--4--4--7--x--9--x--7--7--x--4--4--4-|
A|--4--x--4--4--4--4--5--x--7--x--7--7--x--4--4--4-|
E|--2--2--0--2--0--2-----------x--5--5--x--2--2--2-|

e|-----------|
B|-----------|
G|-----7--9--|
D|--x--7--9--|
A|--x--5--7--|
E|--x--------|

[Verse 1]
e|--------------------------------------------|
B|--------------------------------------------|
G|--------------------------------------------|
D|--7--x--4--4--4--x---------7--x--4--4--4--x-|
A|--7--x--4--4--4--x---------7--x--4--4--4--x-|
E|--5--x--2--2--2--x--0h2/5--5--x--2--2--2--x-|

e|----------------------------------------------------|
B|----------------------------------------------------|
G|----------------------------------------------------|
D|---------7--x--4--4--4--x--------7--7--4--4--4------|
A|---------7--x--4--4--4--x--------7--7--4--4--4------|
E|--0h2/5--5--x--2--2--2--x--0--2--5--5--2--2--2------|

e|---------------------------------------------------|
B|---------------------------------------------------|
G|---------------------------------------------------|
D|---------7--x--4--4--4--x---------7--x--4--4--4--x-|
A|---------7--x--4--4--4--x---------7--x--4--4--4--x-|
E|--0h2/5--5--x--2--2--2--x--0h2/5--5--x--2--2--2--x-|

e|-------------------|
B|-------------------|
G|-----x-----7--9--x-|
D|--7--x--7--7--9--x-|
A|--7--x--7--5--7--x-|
E|--5--x--5--------x-|

[Chorus]
e|----------------------------------------------|
B|----------------------------------------------|
G|--7--x--9--------------------------7--x--9----|
D|--7--x--9--x-----7--x--4--4--4--x--7--x--9--x-|
A|--5--x--7--x-----7--x--4--4--4--x--5--x--7--x-|
E|-----------x--5--5--x--2--2--2--x-----------x-|

e|-------------------------------------------------|
B|-------------------------------------------------|
G|--------------------7--x--9----------------------|
D|--4--x--4--4--4--4--7--x--9--x--7--7--x--4--4--4-|
A|--4--x--4--4--4--4--5--x--7--x--7--7--x--4--4--4-|
E|--2--2--0--2--0--2-----------x--5--5--x--2--2--2-|

e|-----------|
B|-----------|
G|-----7--9--|
D|--x--7--9--|
A|--x--5--7--|
E|--x--------|

[Post-Chorus]
e|--5--2-------|
B|--5--2--7--9-|
G|--6--2--7--9-|
D|--7--4--7--9-|
A|--7--4--5--7-|
E|--5--2-------|

[Verse 1]
e|--------------------------------------------|
B|--------------------------------------------|
G|--------------------------------------------|
D|--7--x--4--4--4--x---------7--x--4--4--4--x-|
A|--7--x--4--4--4--x---------7--x--4--4--4--x-|
E|--5--x--2--2--2--x--0h2/5--5--x--2--2--2--x-|

e|----------------------------------------------------|
B|----------------------------------------------------|
G|----------------------------------------------------|
D|---------7--x--4--4--4--x--------7--7--4--4--4------|
A|---------7--x--4--4--4--x--------7--7--4--4--4------|
E|--0h2/5--5--x--2--2--2--x--0--2--5--5--2--2--2------|

e|---------------------------------------------------|
B|---------------------------------------------------|
G|---------------------------------------------------|
D|---------7--x--4--4--4--x---------7--x--4--4--4--x-|
A|---------7--x--4--4--4--x---------7--x--4--4--4--x-|
E|--0h2/5--5--x--2--2--2--x--0h2/5--5--x--2--2--2--x-|

e|-------------------|
B|-------------------|
G|-----x-----7--9--x-|
D|--7--x--7--7--9--x-|
A|--7--x--7--5--7--x-|
E|--5--x--5--------x-|

[Chorus]
e|----------------------------------------------|
B|----------------------------------------------|
G|--7--x--9--------------------------7--x--9----|
D|--7--x--9--x-----7--x--4--4--4--x--7--x--9--x-|
A|--5--x--7--x-----7--x--4--4--4--x--5--x--7--x-|
E|-----------x--5--5--x--2--2--2--x-----------x-|

e|-------------------------------------------------|
B|-------------------------------------------------|
G|--------------------7--x--9----------------------|
D|--4--x--4--4--4--4--7--x--9--x--7--7--x--4--4--4-|
A|--4--x--4--4--4--4--5--x--7--x--7--7--x--4--4--4-|
E|--2--2--0--2--0--2-----------x--5--5--x--2--2--2-|

e|-----------|
B|-----------|
G|-----7--9--|
D|--x--7--9--|
A|--x--5--7--|
E|--x--------|

[Pre-Outro]
(play a total of six times)
e|-----5-----------2-|
B|-----5-----------2-|
G|-----6-----------2-|
D|--7-----4--4--4--4-|
A|--7-----4--4--4--4-|
E|--5-----2--2--2--2-|

[Outro]
e|----------|
B|----------|
G|--7--9----|
D|--7--9--7-|
A|--5--7--7-|
E|--------5-|


************************************

| x  Dead note
| h  Hammer-on
| /  Slide up

************************************
Suggest correction
comments
print report bad tab
3 comments total.
+1 reply
JDFreeSoul 52 Mar 05, 2006 12:55 AM

Great tab Aravis!

0 reply
guitarguy1344 10 Jun 24, 2007 12:16 PM

nice job

0 reply
greekgirl 10 May 26, 2009 11:50 AM

Great tab! well done!

guest
You may want to rate the tab now too:
select rating
Wanna post a correction for this tab? Suggest correction