Oops, an error
Loading. Please wait.

Prince Of Spades Tab

version 1
version 1

Whole song

9,001 views 1 this week
1 commentread comment
1 2 3 4 5
1 last vote to show rating
add to favorites
launch autoscroll
font size
0
reset
how to read this tab
guitar tuner
Autoscroll
slow
fast
+/-
esc
set tempo
stop
This is an awsome song by dispatch. Standard tuning. enjoy!

E----------------------------------------------------------------|
B----3------3-------3-------3---------3------3-------------------|
G-h2---2------2-------0-----2------h2---2----2-------------------|
D--0---------------------------0h2--0----------------------------|
A--------h3-----3h2-----3h2---------------h3---2-3-2-------------|
E----------------------------------------------------3-----------|

Verse:
D C add9 Emin add9 C add9 :]]repeat

when they sing "Silence ensues"
E------------2---------------------------------------------------|
B------------3---------------------------------------------------|
G------------2---------------------------------------------------|
D------------0---------------------------------------------------|
A--2-3-2---------------------------------------------------------|
E--------3-1-----------------------------------------------------|

"The King is in his court, counting all his diamonds."
E--0-x-------------------------2---------------------------------|
B--2-x----3------3-------------3---------------------------------|
G--2-x-h2---2------2-----------2---------------------------------|
D--2-x--0----------------------0---------------------------------|
A--0-x--------h3-----2-3-2---------------------------------------|
E--------------------------3-1-----------------------------------|
Suggest correction
Give kudos to tab author, rate the tab!
1 2 3 4 5
comments
print report bad tab
1 comment total.
0 reply
magicked 10 Oct 03, 2004 08:00 PM

The actual chords are as follows: Dm -> Cadd9 -> some individual notes:

|--1----0----------1--------1------------------
|--3----3----------3--------3------------------
|--2----0----------2--------2-----------------2
|--0----2----------0--------0-----------0--2---
|--X----3----0--2--X--2--3--X--0--2--3---------
|--X----0----------X--------X------------------

Listen to the album version on "Who Are We Living For?"

guest
You may want to rate the tab now too:
select rating
Wanna post a correction for this tab? Suggest correction