Oops, an error
Loading. Please wait.

Time Served Tab

version 2
version 2

Whole song

Interactive

6,733 views 12 this week
1 commentread comment
1 2 3 4 5
x 4
add to favorites
launch autoscroll
font size
0
reset
how to read this tab
guitar tuner
×
Best way to learn
"Time Served"
Autoscroll
slow
fast
+/-
esc
set tempo
stop
Author
Song: Time Served
Artist: Dispatch
Tabbed by: Matt Quinlan

Intro/riff:

e|--------------------------
B|--------------------------
G|--------------------------
D|---5p0------5p0-----7-5---
A|-------5-7------5-7-----7-
E|--------------------------



e|--------------------------------
B|--------------------------------
G|--------------------------------
D|---5p0------5p0-----------------
A|-------5-7------5h7p5-----------
E|----------------------h7-6-5-3-0

e|--------------------------
B|--------------------------
G|--------------------------
D|---5p0------5p0-----7-5---
A|-------5-7------5-7-----7-
E|--------------------------

e|-------------------------------
B|-------------------------------
G|----------------------------0--
D|---5p0------5p0---------0-2--0-
A|-------5-7--------0-1-2--------
E|----------------3--------------

Verse Chords:
(Use barre chords)

Em  D  C  D


When he starts playing fancy licks, he's really just
playing notes in the chords, so just play around with the chord shapes



Questions/comments e-mail me at ALMATTY2001@yahoo.com
Suggest correction
comments
print report bad tab
1 comment total.
0 reply
Tedrick 201 Feb 25, 2006 10:52 AM

good job on the intro, the only thing i would change is i think it makes more sense to play the last line like this

e|-------------------------------
B|-------------------------------
G|-------------------------------
D|---5p0------5p0-------------5---
A|-------5-7--------------5-7---5---
E|----------------3-5-6-7-----------

guest
You may want to rate the tab now too:
select rating
Wanna post a correction for this tab? Suggest correction