Oops, an error
Loading. Please wait.

Another Way To Die Tab

version 1
version 1

Whole song

Interactive

93,982 views 60 this week
9 commentsread comments
1 2 3 4 5
excellent!
x 25
add to favorites
launch autoscroll
font size
0
reset
how to read this tab
guitar tuner
Autoscroll
slow
fast
+/-
esc
set tempo
stop
Help us to improve Ultimate-Guitar.com Take our survey!
×
Contributor
Difficulty
Tuning
aweisti 750
intermediate
C# G# C# F# A# D#
DISTURBED - ANOTHER WAY TO DIE (With Solo)
TABBED BY: aweisti

KEY:
* PALM MUTE (ALSO MEANS PINCH HARMONIC IN SOLO)
/ SLDE UP
\ SLIDE DOWN
h HAMMER ON
p PULL OFF
~ VIBRATO
+ SWEEP
T TAP

~EDIT~ CORRECTED THE TAPPING SECTION AT THE END OF THE SOLO

INTRO:
Guitar1 (Clean)
Guitar2 (Distorted)
D#|------------------------------------------------------------|
A#|------------------------------------------------------------|
F#|-------------------0---------------------------0------------|
C#|-----0-----0-3---0-----0---------0-----0-3---0-----0----2---|
G#|---0---0-1-----2-----1---0-----0---0-1-----2-----1---/3-----|
C#|-0-------------------------3-0------------------------------|

D#|------------------------------------------------------------|
A#|------------------------------------------------------------|
F#|-------------------0----------------------------------------|
C#|-----0-----0-3---0-----0---------3---3-------------5---5-1--| X3
G#|---0---0-1-----2-----1---0-----3---3---3---3-----5---5---1--| 
C#|-0-------------------------3-3-----------3-----5---------1--|

Guitar3 come in at  00:34
D#|----------------------------------------------------------------|
A#|----------------------------------------------------------------|
F#|----------------------------------------------------------------|
C#|---------------------------------------------------3--5---1-0---|
G#|-0-0---0-0--0-0---0-0---0-0--0-0---0-0---0-0--0-0--3--5---1-0---|
C#|-0-0---0-0--0-0---0-0---0-0--0-0---0-0---0-0--0-0--3--5---1-0---|


1:00   
Guitar1 (Guitar 2 come in at 1:03)   
D#|----------------------------------------------------------------|
A#|----------------------------------------------------------------|
F#|----------------------------------------------------------------|
C#|----------------------------------------------------------------|
G#|------------------------------------------------5h8p5-----------|
C#|-1-0-00-00-00-000-0000-00-00-0h3h6-1-000-00-5h6-------h6--3-0-3-|

D#|----------------------------------------------------------------|
A#|----------------------------------------------------------------|
F#|----------------------------------------------------------------|
C#|----------------------------------------------------------------|
G#|--------------5h6p5---------------------------------------------|
C#|-0-2-2--0h5h6-------h6------------------------------------------|
           ...harmonics..

1:09
D#|----------------------------------------------------------------|
A#|----------------------------------------------------------------|
F#|----------------------------------------------------------------|
C#|----------------------------------------------------------------|
G#|------------------------------------------------5h8p5-----------|
C#|-1-0-00-00-00-000-0000-00-00-0h3h6-1-000-00-5h6-------h6--3-0-3-|

D#|----------------------------------------------------------------|
A#|----------------------------------------------------------------|
F#|----------------------------------------------------------------|
C#|----------------------------------------------------------------|
G#|--------------5h6p5---------------------------------------------|
C#|-0-2-2--0h5h7-------h6------------------------------------------|


VERSE 1:17
Guitar's 1&2
D#|----------------------------------------------------------------|
A#|----------------------------------------------------------------|
F#|----------------------------------------------------------------|
C#|-1-----------------------------------1--------------------------|
G#|-1-0-00-00-00-000--0000-00-00-0------1-0-00-00----5h8p5---------|
C#|-1-0-00-00-00-000--0000-00-00-0-3h6--1-0-00-00-5h6-----h6-3-0-3-|
      * ** ** ** ***  **** ** ** *        * ** **
D#|------------------------------------------------------------|
A#|------------------------------------------------------------|
F#|------------------------------------------------------------|
C#|------------------------------------------------------------| X2
G#|--------------5h6p5-----------------------------------------| 
C#|-0-2-2--0h5h7-------h6--------------------------------------|

1:35
D#|----------------------------------------------------------------|
A#|----------------------------------------------------------------|
F#|----------------------------------------------------------------|
C#|----------------------------------------------------------------|
G#|------------------------------------------------5h8p5-----------|
C#|-1-0-00-00-00-000-0000-00-00-0h3h6-1-000-00-5h6-------h6---3-0-3|

D#|----------------------------------------------------------------|
A#|----------------------------------------------------------------|
F#|----------------------------------------------------------------|
C#|----------------------------------------------------------------|
G#|--------------5h6p5---------------------------------------------|
C#|-0-2-2--0h5h6-------h6------------------------------------------|


CHORUS: 1:45
Guitar's 1&2
D#|----------------------------------------------------------------|
A#|----------------------------------------------------------------|
F#|----------------------------------------------------------------|
C#|-3-3-3-3-3-3-------------5-5-5-5-5-5-------------3-3-3-3-3-3-3-3|
G#|-1-1-1-1-1-1-5-5-5-4-4-5-3-3-3-3-3-3-1-1-1-1-1-1-1-1-1-1-1-1-1-1|
C#|-------------5-5-5-4-4-5-------------1-1-1-1-1-1----------------|

D#|----------------------------------------------------------------|
A#|----------------------------------------------------------------|
F#|----------------------------------------------------------------|
C#|-------------5-5-5-5-5-5--8-8-8-8-8-8---------------------------|
G#|-5-5-5-4-4-5-1-1-1-1-1-1--6-6-6-6-6-6---------------------------|
C#|-5-5-5-4-4-5----------------------------------------------------|

2:02-REPEAT 1:09 guitar
2:11-REPEAT VERSE
2:39-REPEAT CHORUS


SOLO: 3:00
(Rhythm guitar play intro through to 3:30 solo then see below solo)

Guitar1
D#|----------------------------------------------------------------|
A#|-13b15--13b15r13~-----------------------------------------------|
F#|------------------/9-10-12-10-10-----*2b3r2~--------------------|
C#|---------------------------------12~---------3b4r3-----------3--|
G#|---------------------------------------------------3b5r3/5-5---5|
C#|----------------------------------------------------------------|

D#|----------------------------------------------------------------|
A#|----------------------------------------------------------------|
F#|-----------------------10----10~10----12-10---------------------|
C#|-3-/8-7-5-7/10-7-10-12----12-------10-------12-10-------7-5-----|
G#|--------------------------------------------------12-10----7-5\3|
C#|----------------------------------------------------------------|

D#|-12h13p12-----12h13p12--12-12h13p12-----12h12p13----------------|
A#|---------13-----------13-----------13-----------13--13-13b15r13-|
F#|-----------14------------------------14-----------12------------|
C#|----------------------------------------------------------------|
G#|----------------------------------------------------------------|
C#|----------------------------------------------------------------|

D#|----------------------------------------------------------------|
A#|-10-13~--10h13p10-----------------------------------------------|
F#|------------------12b14r12-10-----10-12-12~--12-10--------------|
C#|------------------------------h12------------------12-----------|
G#|------------------------------------------------------12-10\8~--|
C#|----------------------------------------------------------------|

D#|-20b22---20-18-17-18=15=17=--------13-17p13h17p13h17T22p13h17p13|
A#|-----------------(flutters)------15+----------------------------|
F#|-------------------------------16+------------------------------|
C#|-----------------------------17+--------------------------------|
G#|---------------------------19+----------------------------------|
C#|----------------------------------------------------------------|

D#|-T20p13h17T22p13h17T20p13h17-T15p10h13-T15/16p13p10-T15p13p10---|
A#|----------------------------------------------------------------|
F#|----------------------------------------------------------------|
C#|----------------------------------------------------------------|
G#|----------------------------------------------------------------|
C#|----------------------------------------------------------------|

D#|----------------------------------------------------------------|
A#|-T15p13p10------------------------------------------------------|
F#|-----------T15p13p10--------------------------------------------|
C#|---------------------T15p13p10----------------------------------|
G#|-------------------------------T15p12p10\8~---------------------|
C#|----------------------------------------------------------------|
                


Guitar2
D#|----------------------------------------------------------------|
A#|----------------------------------------------------------------|
F#|----------------------------------------------------------------|
C#|----------------------------------------------------------------|
G#|-3-3-3-3-3-3-3-3--5-5-5-5-5-1-0---------------------------------|
C#|-3-3-3-3-3-3-3-3--5-5-5-5-5-1-0---------------------------------|
    * * * * *

CHORUS 3:37
Guitar's 1&2
D#|----------------------------------------------------------------|
A#|----------------------------------------------------------------|
F#|----------------------------------------------------------------|
C#|-3-3-3-3-3-3-------------5-5-5-5-5-5-------------3-3-3-3-3-3-3-3|
G#|-1-1-1-1-1-1-5-5-5-4-4-5-3-3-3-3-3-3-1-1-1-1-1-1-1-1-1-1-1-1-1-1|
C#|-------------5-5-5-4-4-5-------------1-1-1-1-1-1----------------|

D#|----------------------------------------------------------------|
A#|----------------------------------------------------------------|
F#|----------------------------------------------------------------|
C#|-------------5-5-5-5-5-5--8-8-8-8-8-8---------------------------|
G#|-5-5-5-4-4-5-1-1-1-1-1-1--6-6-6-6-6-6---------------------------|
C#|-5-5-5-4-4-5----------------------------------------------------|


OUTRO 3:54
Guitar's 1&2
D#|-----------------------------------------------------------|
A#|-----------------------------------------------------------|
F#|-----------------------------------------------------------|
C#|-----------------------------------------------------------| X3
G#|-----------------------------------------------------------|
C#|-1-0-00-00-00-000-0000-00-00-0h3h6-------------------------|

D#|----------------------------------------------------------------|
A#|----------------------------------------------------------------|
F#|----------------------------------------------------------------|
C#|----------------------------------------------------------------|
G#|---------------------------------5h6p5--------------------------|
C#|-1-0-00-00-00-000-0000-0-0-0h5h6-------h6-----------------------|

enjoy!
comments
print report bad tab
9 comments total. Showing first comments.
+3 reply
unformed68 130 wrote on July 10 2010, 06:54 pm

Pretty sick for the first tab on here. Can't wait till someone makes a good guitar pro version.

5*

0 reply
ScorcherFrets 11 wrote on July 13 2010, 12:17 am

Thanks. I've been waiting for this.

+2 reply
KataklysmDeth 295 wrote on August 6 2010, 07:25 pm

Is it just me or does the solo remind ya'll of dimebag?

I want to post or [tab]
guest
You may want to rate the tab now too:
select rating
Please do not post tabs as comments. Select "correction" instead!