Oops, an error
Loading. Please wait.

Another Way To Die Bass Tab

version 2
version 2

Whole song

Interactive

4,440 views 21 this week
no commentswrite comment
1 2 3 4 5
please rate
add to favorites
launch autoscroll
font size
0
reset
guitar tuner
Autoscroll
slow
fast
+/-
esc
set tempo
stop
Help us to improve Ultimate-Guitar.com Take our survey!
×
Author
Difficulty
Tuning
Trotfox5 135
intermediate
C# G# C# F# A# D#
Disturbed - Another Way To Die
Tuning - C#/G#/C#/F#
Tabbed: Trotfox5

This is a four string version that I think is
easier to play than the 5 string version. The intro
and chorus may not be exactly right but they work. The
verse I'm almost sure of though

Intro:
F#|--------------------------------------------------|
C#|--------------------------------------------------|
G#|---1-2-1---------1-3-5-1-2-1---3-----3---5-----5--|2x's
C#|-0-------3-0-3-5-------------3---3-3---5---5-5---1|

F#|-------------------------------------------------------|
C#|-------------------------------------------------------|
G#|-----------------------------------3-----3---5-----5---|
C#|-00-00--00-00--00--00-00--00--00-3---3-3---5---5-5---1-|

Pre Verse:


F#|-------------------------------------------------------|
C#|-------------------------------------------------------|
G#|-----------------------------5h8p5---------------------|
C#|-0000---0-2h5-1-000-00-0-5h6-------5--3-0-3-0-22-------|

Verse:

F#|---------------------------------------------------------------------|
C#|---------------------------------------------------------------------|
G#|-------------------------------------------------5h8p5---------------|
C#|-1-000-00-00-0000--0000-00-00-2h5-1-000-00-0-5h6-------5--3-0-3-0-22-|

F#|---------------|
C#|---------------|
G#|-------5h6p5---|4x's
C#|-0-5h7-------8-|

Chorus:

F#|---------------------------------------------------------------------|
C#|---------------------------------------------------------------------|
G#|-1-1-1-1-1-1-------------3-3-3-3-3-3-------------1-1-1-1-1-1-1-1-----|
C#|-------------5-5-5-4-4-5-------------1-1-1-1-1-1---------------------|

F#|-------------------------------------|
C#|-------------------------------------|
D#|-------------1-1-1-1-1-1-6-6-6-6-6-6-|
C#|-5-5-5-4-4-5-------------------------|

Verse

Chorus

Guitar Solo = intro x 2

Chorus

This line isn't overly complex, just fast. A little bit of hand
exercise will go a long way here.
Suggest correction new What's this?
You can suggest a correction to this tab. Community and Mods will review your correction and vote to approve or reject it.
comments
We did not receive enough feedback on this tab! Please rate:
print report bad tab
1 2 3 4 5
guest
You may want to rate the tab now too:
select rating
Please do not post tabs as comments. Select "correction" instead!