Oops, an error
Loading. Please wait.

Another Way To Die Bass Tab

version 3
version 3

Whole song

Interactive

4,555 views 1 this week
no commentswrite comment
1 2 3 4 5
excellent!
x 4
add to favorites
launch autoscroll
font size
0
reset
guitar tuner
Tab Pro tools
  • play this tab
  • loop segment
  • change instrument
  • show fretboard
  • metronome
×
Best way to learn
"Another Way To Die"
Autoscroll
slow
fast
+/-
esc
set tempo
stop
Contributor
Difficulty
Tuning
intermediate
C# G# C# F# A# D#
ANOTHER WAY TO DIE (Bassline)
As recorded by Disturbed
(From the 2010 Album ASYLUM)


Transcribed by Liam Briggs - lb.guitar.boy@gmail.com

 Words and Music by Disturbed

 

Gtr I (Bb Db Ab Db Gb) - 'John Moyer (Bass)'


 Intro
  Moderate Rock Q=112
 4/4
  Gtr I
  Q.   E +Q.   E   +Q.   E +H       Q.   E +Q.   E   +Q.    E +Q   Q
|----------------|----------------|----------------|------------------|
|----------------|----------------|----------------|------------------|
|----------------|----------------|----------------|-------/8-(8)--7--|
|------1-(1)---2-|-(2)---1-(1)----|------1-(1)---2-|-(2)--------------|
|-0--------------|----------------|-0--------------|------------------|


  Q.   E +Q.   E   +Q.   E +H       Q  E E E Q  E   E E E E E Q.
|----------------|----------------|---------------|----------------||
|----------------|----------------|---------------|----------------||
|----------------|----------------|--------3----3-|-----5---5------||
|------1-(1)---2-|-(2)---1-(1)----|---------------|----------------||
|-0--------------|----------------|-3--3-3---3----|-5-5---5---1----||


   Verse 1
    Q.   E +Q.   E   +Q.   E +H       Q.   E +Q.   E   +Q.    E +Q   Q
||-----------------|----------------|----------------|-----------------|
||o----------------|----------------|----------------|-----------------|
||-----------------|----------------|----------------|-------/8-(8)--7-|
||o------1-(1)---2-|-(2)---1-(1)----|------1-(1)---2-|-(2)-------------|
||--0--------------|----------------|-0--------------|-----------------|


  Q.   E +Q.   E   +Q.   E +H       Q  E E E Q  E   E E E E E Q.
|----------------|----------------|---------------|-----------------||
|----------------|----------------|---------------|----------------o||
|----------------|----------------|--------3----3-|-----5---5-------||
|------1-(1)---2-|-(2)---1-(1)----|---------------|----------------o||
|-0--------------|----------------|-3--3-3---3----|-5-5---5---1-----||


  W          +W           +W           +W
|----------|------------|------------|--------||
|----------|------------|------------|--------||
|----------|------------|------------|--------||
|----------|------------|------------|--------||
|-0--------|-(0)--------|-(0)--------|-(0)----||


 Main Riff
   H.      Q    E S S S S E Q  S S S S   E e Q  H      E S S +S  S S S H
|-------------|------------------------|-------------|----------------------|
|-------------|------------------------|-------------|----------------------|
|-------------|------------------------|-------------|----------------------|
|-12\---------|---0-0-0-0--------0-3-6-|-1-0---------|-3-0-3-(3)-0-2-2------|
|-------------|------------------------|-------------|----------------------|


  $
  E e S S S S e S S S S S S   E S S S S S S e S S S S S S
|---------------------------|------------------------------|
|---------------------------|------------------------------|
|---------------------------|------------------------------|
|-1-0-0-0---0-0-0-0---0-0-0-|---0-0-0-0---0-0-0-0---0-3-6--|
|---------------------------|------------------------------|


  E e S S S S e S S S S S S   E S S +S  S S S S S S S S S S S
|---------------------------|---------------------------------||
|---------------------------|---------------------------------||
|-------------------5h8p5---|-------------------------5h6p5---||
|-1-0-0-0---0-0-5h6-------6-|-3-0-3-(3)-0-2-2---0-5h6-------5-||
|---------------------------|---------------------------------||


   Verse
    E e S S S S e S S S S S S   E S S S S S S e S S S S S S
||----------------------------|-----------------------------|
||o---------------------------|-----------------------------|
||----------------------------|-----------------------------|
||o-1-0-0-0---0-0-0-0---0-0-0-|---0-0-0-0---0-0-0-0---0-3-6-|
||----------------------------|-----------------------------|


  E e S S S S e S S S S S S   E S S +S  S S S S S S S S S S S
|---------------------------|----------------------------------||
|---------------------------|---------------------------------o||
|-------------------5h8p5---|-------------------------5h6p5----||
|-1-0-0-0---0-0-5h6-------6-|-3-0-3-(3)-0-2-2---0-5h6-------5-o||
|---------------------------|----------------------------------||


 Pre-Chorus
  E e S S S S e S S S S S S   E S S S S S S e S S S S S S
|---------------------------|------------------------------|
|---------------------------|------------------------------|
|---------------------------|------------------------------|
|-1-0-0-0---0-0-0-0---0-0-0-|---0-0-0-0---0-0-0-0---0-3-6--|
|---------------------------|------------------------------|


  E e S S S S e S S S S S S   E S S +S  S S S S S S S S S S S   W
|---------------------------|---------------------------------|------||
|---------------------------|---------------------------------|------||
|-------------------5h8p5---|-------------------------5h6p5---|------||
|-1-0-0-0---0-0-5h6-------6-|-3-0-3-(3)-0-2-2---0-5h6-------5-|------||
|---------------------------|---------------------------------|------||


   Chorus
    $$
    E. S +E  E E. S +E  E   E. S +E  E E. S +E  E
||------------------------|-----------------------|
||o-----------------------|-----------------------|
||------------------------|-----------------------|
||o-8--8-(8)-8-8--8-(8)-8-|-----------------------|
||------------------------|-8--8-(8)-8-7--7-(7)-8-|


                                                                D.S.
                                                                D.S.
   E.  S  +S   S  E  S  E  S  E  S  S    E.  S  +E   E  Q   E  S  S
|-------------------------------------|-------------------------------||
|-------------------------------------|------------------------------o||
|-------------------------------------|-------------------------------||
|-10--10-(10)-10-10-10-10-10-10-10-10S|=13--13-(13)-13-13--13-13-13--o||
|-------------------------------------|-------------------------------||


 Guitar Solo
  W          +W
|----------|--------|
|----------|--------|
|----------|--------|
|----------|--------|
|-0--------|-(0)----|


    Q.   E +Q.   E   +Q.   E +H       Q.   E +Q.   E   +Q.    E +Q   Q
||-----------------|----------------|----------------|-------------------|
||o----------------|----------------|----------------|-------------------|
||-----------------|----------------|----------------|-------/8-(8)--7---|
||o------1-(1)---2-|-(2)---1-(1)----|------1-(1)---2-|-(2)---------------|
||--0--------------|----------------|-0--------------|-------------------|


  1.
  Q.   E +Q.   E   +Q.   E +H       Q  E E E Q  E   E E E E E Q.
|----------------|----------------|---------------|-----------------||
|----------------|----------------|---------------|----------------o||
|----------------|----------------|--------3----3-|-----5---5-------||
|------1-(1)---2-|-(2)---1-(1)----|---------------|----------------o||
|-0--------------|----------------|-3--3-3---3----|-5-5---5---1-----||


  2.
  Q.   E +Q.   E   +Q.   E +H
|----------------|----------------|
|----------------|----------------|
|----------------|----------------|
|------1-(1)---2-|-(2)---1-(1)----|
|-0--------------|----------------|


                               D.S.S. al Coda
  E E E E E E E E   E E E E E Q.     W
|-----------------|----------------|----------||
|-----------------|----------------|----------||
|-----------------|----------------|----------||
|-----------------|----------------|----------||
|-3-3-3-3-3-3-3-3-|-5-5-5-5-5-1----|-0--------||


   Outro
    &
    E e S S S S e S S S S S S   E S S S S S S e S S S S S S
||----------------------------|-----------------------------|
||o---------------------------|-----------------------------|
||----------------------------|-----------------------------|
||o-1-0-0-0---0-0-0-0---0-0-0-|---0-0-0-0---0-0-0-0---0-3-6-|
||----------------------------|-----------------------------|


                             1.
  E e S S S S e S S S S S S   E S S S S S S e S S S S S S
|---------------------------|------------------------------||
|---------------------------|-----------------------------o||
|---------------------------|------------------------------||
|-1-0-0-0---0-0-0-0---0-0-0-|---0-0-0-0---0-0-0-0---0-3-6-o||
|---------------------------|------------------------------||


  2.
  E S S S S S S S S S S S S S s
|-------------------------------*|
|-------------------------------*|
|-----------------------5-8-5---*|
|---0-0-0-0---0---0-5-6-------3-*|
|-------------------------------*|




--------------------------------------------------------------------------------


Duration Legend
---------------
W - whole; H - half; Q - quarter; E - 8th; S - 16th; T - 32nd; X - 64th; a - acciaccatura
+ - note tied to previous; . - note dotted; .. - note double dotted
Uncapitalized letters represent notes that are staccato (1/2 duration)
Irregular groupings are notated above the duration line
Duration letters will always appear directly above the note/fret number it represents the
duration for.  Duration letters with no fret number below them represent rests.  Multi-
bar rests are notated in the form Wxn, where n is the number of bars to rest for.  Low
melody durations appear below the staff

Tablature Legend
----------------
 h   - hammer-on
 p   - pull-off
 b   - bend
 pb  - pre-bend
 r   - bend release (if no number after the r, then release immediately)
 /\  - slide into or out of (from/to "nowhere")
 s   - legato slide
 S   - shift slide
 - natural harmonic
[n]  - artificial harmonic
n(n) - tapped harmonic
 ~   - vibrato
 tr  - trill
 T   - tap
 TP  - trem. picking
 PM  - palm muting
\n/  - tremolo bar dip; n = amount to dip
 \n  - tremolo bar down
 n/  - tremolo bar up
/n\  - tremolo bar inverted dip
 =   - hold bend; also acts as connecting device for hammers/pulls
 <> - volume swell (louder/softer)
 x   - on rhythm slash represents muted slash
 o   - on rhythm slash represents single note slash

Misc Legend
-----------
 |  - bar
||  - double bar
||o - repeat start
o|| - repeat end
*|  - double bar (ending)
 :  - bar (freetime)
 $  - Segno
 &  - Coda
Tempo markers -  = BPM(8/16=s8/s16), where s8 = swing 8ths, s16 = swing 16ths


comments
print report bad tab
I want to post or [tab]
guest
You may want to rate the tab now too:
select rating
Please do not post tabs as comments. Select "correction" instead!