Oops, an error
Loading. Please wait.

Another Way To Die Tab

version 3
version 3

Whole song

Interactive

4,189 views 1 this week
3 commentsread comments
1 2 3 4 5
x 5
add to favorites
launch autoscroll
font size
0
reset
how to read this tab
guitar tuner
Autoscroll
slow
fast
+/-
esc
set tempo
stop
Help us to improve Ultimate-Guitar.com Take our survey!
×
Author
Difficulty
Tuning
intermediate
C# G# C# F# A# D#
ANOTHER WAY TO DIE
As recorded by Disturbed
(From the 2010 Album ASYLUM)


Transcribed by Liam Briggs - lb.guitar.boy@gmail.com

 Words and Music by Disturbed

 

D5
0 0 x x x x F5
3 3 3 x x x G5
5 5 5 x x x Eb5
1 1 1 x x x 
D5open
0 0 0 2 3 x 


Gtr I (Db Ab Db Gb Bb Eb) - 'Guitar 1'
Gtr II (Db Ab Db Gb Bb Eb) - 'Guitar 2'
Gtr III (Db Ab Db Gb Bb Eb) - 'Guitar 3'
Gtr IV (Db Ab Db Gb Bb Eb) - 'Guitar 4'
Gtr V (Db Ab Db Gb Bb Eb) - 'Guitar 5'
Gtr VI (E A D G B E) - 'Bass Drum Fill'


 Intro
  Moderate Rock Q=112
  D5      Bb    G/B         Gm/Bb
 4/4
  Gtrs I, II
  E E E E E E E E   +E  E E E +E  E E E
|-----------------|---------------------|
|-----------------|---------------------|
|-----------------|-------0---------0---|
|-----0-----0-3---|-----0---------0-----|
|---0---0-1-----2-|-(2)-----1-(1)-------|
|-0---------------|-------------------3-|


  D5      Bb    G/B         Bb      C
  E E E E E E E E   +E  E E E +E  E  E E
|-----------------|----------------------|
|-----------------|----------------------|
|-----------------|-------0--------------|
|-----0-----0-3---|-----0---------0----2-|
|---0---0-1-----2-|-(2)-----1-(1)---/3---|
|-0---------------|----------------------|


  D5      Bb    G/B         Gm/Bb         F5                G5        Eb5
  E E E E E E E E   +E  E E E +E  E E E   E E E E E E E E   E E E E E Q.
|-----------------|---------------------|-----------------|----------------||
|-----------------|---------------------|-----------------|----------------||
|-----------------|-------0---------0---|-----------------|----------------||
|-----0-----0-3---|-----0---------0-----|-----3---3-------|-----5---5------||
|---0---0-1-----2-|-(2)-----1-(1)-------|---3---3---3---3-|---5---5---1----||
|-0---------------|-------------------3-|-3-----------3---|-5---------1----||


 Verse 1
  D5      Bb    G/B         Gm/Bb
  E E E E E E E E   +E  E E E +E  E E E
|-----------------|---------------------|
|-----------------|---------------------|
|-----------------|-------0---------0---|
|-----0-----0-3---|-----0---------0-----|
|---0---0-1-----2-|-(2)-----1-(1)-------|
|-0---------------|-------------------3-|


  D5      Bb    G/B         Bb      C
  E E E E E E E E   +E  E E E +E  E  E E
|-----------------|----------------------|
|-----------------|----------------------|
|-----------------|-------0--------------|
|-----0-----0-3---|-----0---------0----2-|
|---0---0-1-----2-|-(2)-----1-(1)---/3---|
|-0---------------|----------------------|


  D5      Bb    G/B         Gm/Bb         F5                G5        Eb5
  E E E E E E E E   +E  E E E +E  E E E   E E E E E E E E   E E E E E Q.
|-----------------|---------------------|-----------------|----------------|
|-----------------|---------------------|-----------------|----------------|
|-----------------|-------0---------0---|-----------------|----------------|
|-----0-----0-3---|-----0---------0-----|-----3---3-------|-----5---5------|
|---0---0-1-----2-|-(2)-----1-(1)-------|---3---3---3---3-|---5---5---1----|
|-0---------------|-------------------3-|-3-----------3---|-5---------1----|


  D5
  Gtrs III, IV
  E E Q   Q   E E    H         E  E Q
  | |         | |              |  |
  / /         / /              /  /

  Gtrs I, II
  E E E E E E E E   +E  E E E +E  E E E
|-----------------|---------------------|
|-----------------|---------------------|
|-----------------|-------0---------0---|
|-----0-----0-3---|-----0---------0-----|
|---0---0-1-----2-|-(2)-----1-(1)-------|
|-0---------------|-------------------3-|


  E E Q   Q   E E    H         E  E  Q
  | |         | |              |  |
  / /         / /              /  /

  E E E E E E E E   +E  E E E +E  E  E E
|-----------------|----------------------|
|-----------------|----------------------|
|-----------------|-------0--------------|
|-----0-----0-3---|-----0---------0----2-|
|---0---0-1-----2-|-(2)-----1-(1)---/3---|
|-0---------------|----------------------|


  D5                                      F5                G5         Eb5
  E E Q   Q   E E    H         E  E Q     W                 H       +E Q.
  | |         | |              |  |       |                 |        | |
  / /         / /              /  /       /                 /        / /

  E E E E E E E E   +E  E E E +E  E E E   E E E E E E E E   E E E E  E Q.
|-----------------|---------------------|-----------------|-----------------|
|-----------------|---------------------|-----------------|-----------------|
|-----------------|-------0---------0---|-----------------|-----------------|
|-----0-----0-3---|-----0---------0-----|-----3---3-------|-----5----5------|
|---0---0-1-----2-|-(2)-----1-(1)-------|---3---3---3---3-|---5---5----1----|
|-0---------------|-------------------3-|-3-----------3---|-5----------1----|


  D5open
  W          +W           +W           +W
  |           |            |            |
  /           /            /            /

  W          +W           +W           +W
|----------|------------|------------|--------|
|----------|------------|------------|--------|
|----------|------------|------------|--------|
|-0--------|-(0)--------|-(0)--------|-(0)----|
|-0--------|-(0)--------|-(0)--------|-(0)----|
|-0--------|-(0)--------|-(0)--------|-(0)----|


 Main Riff
  N.C.
  Gtr III
  E e S S S S e S S S S S S   E S S S S S S e S S S S S S
|---------------------------|------------------------------|
|---------------------------|------------------------------|
|---------------------------|------------------------------|
|---------------------------|------------------------------|
|---------------------------|------------------------------|
|-1-0-0-0---0-0-0-0---0-0-0-|---0-0-0-0---0-0-0-0---0-3h6--|
|
| Gtr IV
| W                           E S S S S E   Q     S S S S
|---------------------------|------------------------------|
|---------------------------|------------------------------|
|---------------------------|------------------------------|
|---------------------------|------------------------------|
|---------------------------|------------------------------|
|---------------------------|---0-0-0-0-------------0-3h6--|


  N.C.
  E e S S S S e S S S S S S   E S S +S  S S S H
|---------------------------|---------------------------------|
|---------------------------|---------------------------------|
|---------------------------|---------------------------------|
|---------------------------|---------------------------------|
|-------------------5h8p5---|---------------------------------|
|-1-0-0-0---0-0-5h6-------6-|-3-0-3-(3)-0-2-2-----------------|
|
| E e S S S S e S S S S S S   E S S +S  S S S S S S S S S S S
|---------------------------|---------------------------------|
|---------------------------|---------------------------------|
|---------------------------|---------------------------------|
|---------------------------|---------------------------------|
|-------------------5h8p5---|-------------------------5h6p5---|
|-1-0-0-0---0-0-5h6-------6-|-3-0-3-(3)-0-2-2---0-5h6-------6-|


  $
  N.C.
  Gtrs III, IV
  E e S S S S e S S S S S S   E S S S S S S e S S S S S S
|---------------------------|------------------------------|
|---------------------------|------------------------------|
|---------------------------|------------------------------|
|---------------------------|------------------------------|
|---------------------------|------------------------------|
|-1-0-0-0---0-0-0-0---0-0-0-|---0-0-0-0---0-0-0-0---0-3h6--|


  N.C.
  E e S S S S e S S S S S S   E S S +S  S S S S S S S S S S S
|---------------------------|---------------------------------||
|---------------------------|---------------------------------||
|---------------------------|---------------------------------||
|---------------------------|---------------------------------||
|-------------------5h8p5---|-------------------------5h6p5---||
|-1-0-0-0---0-0-5h6-------6-|-3-0-3-(3)-0-2-2---0-5h6-------6-||


   Verse
    N.C.
    Gtrs III, IV
      PM------------------------------------------|
    E e S S S S e S S S S S S   E S S S S S S e S S S S S S
||----------------------------|-----------------------------|
||o---------------------------|-----------------------------|
||----------------------------|-----------------------------|
||----------------------------|-----------------------------|
||o---------------------------|-----------------------------|
||--1-0-0-0---0-0-0-0---0-0-0-|---0-0-0-0---0-0-0-0---0-3h6-|


  N.C.
    PM--------|
  E e S S S S e S S S S S S   E S S +S  S S S S S S S S S S S
|---------------------------|----------------------------------||
|---------------------------|---------------------------------o||
|---------------------------|----------------------------------||
|---------------------------|----------------------------------||
|-------------------5h8p5---|-------------------------5h6p5---o||
|-1-0-0-0---0-0-5h6-------6-|-3-0-3-(3)-0-2-2---0-5h6-------6--||


 Pre-Chorus
  N.C.
  Gtrs III, IV
  E e S S S S e S S S S S S   E S S S S S S e S S S S S S
|---------------------------|------------------------------|
|---------------------------|------------------------------|
|---------------------------|------------------------------|
|---------------------------|------------------------------|
|---------------------------|------------------------------|
|-1-0-0-0---0-0-0-0---0-0-0-|---0-0-0-0---0-0-0-0---0-3h6--|


  N.C.                                                          D5
  Gtr VI
  W                           W                                 Q  Q  Q  Q
                                                                |  |  |  |
                                                                x  x  x  x

  E e S S S S e S S S S S S   E S S +S  S S S S S S S S S S S   W
|---------------------------|---------------------------------|--------------|
|---------------------------|---------------------------------|--------------|
|---------------------------|---------------------------------|--------------|
|---------------------------|---------------------------------|--------------|
|-------------------5h8p5---|-------------------------5h6p5---|--------------|
|-1-0-0-0---0-0-5h6-------6-|-3-0-3-(3)-0-2-2---0-5h6-------6-|--------------|


   Chorus
    Bb5                     G5         F#5      G5
    Gtrs III, IV
    E. S +E  E E. S +E  E   E. S +E  E E. S +E  E
||------------------------|-----------------------|
||o-----------------------|-----------------------|
||------------------------|-----------------------|
||------------------------|-----------------------|
||o-8--8-(8)-8-8--8-(8)-8-|-5--5-(5)-5-4--4-(4)-5-|
||--8--8-(8)-8-8--8-(8)-8-|-5--5-(5)-5-4--4-(4)-5-|


                                             D.S.
  C5                         Eb5
  E. S +S  S E S E S E S S   E. S +E  E Q  E S S
|--------------------------|-----------------------||
|--------------------------|----------------------o||
|--------------------------|-----------------------||
|-5--5-(5)-5-5-5-5-5-5-5-5S|=8--8-(8)-8-8--8-8-8---||
|-3--3-(3)-3-3-3-3-3-3-3-3S|=6--6-(6)-6-6--6-6-6--o||
|--------------------------|-----------------------||


 Guitar Solo
  D5
  Gtrs III, IV, V
  W          +W
|----------|--------|
|-3--------|-(3)----|
|-2--------|-(2)----|
|-0--------|-(0)----|
|-0--------|-(0)----|
|-0--------|-(0)----|


  D5          Bb        G/B              Gm/Bb
  Gtrs I, II
   E    E E E E E  E    E    +E  E   E   E +E  E      E   E
|-------------------------|---------------------------------|
|-------------------------|---------------------------------|
|-------------------------|----------0----------------0-----|
|---------0-----0--3------|------0-------------0------------|
|-------0---0-1---------2-|--(2)---------1-(1)--------------|
|--0----------------------|-------------------------------3-|
|
| Gtr V
|  ~~~~~                      ~~~~
|  H.              Q         +Q     +Q      E.    S  +E   E
|-------------------------|---------------------------------|
|-13b15-----------13b15r==|=(13)---(13)\--------------------|
|-------------------------|----------------/9----10-(10)-12-|
|-------------------------|---------------------------------|
|-------------------------|---------------------------------|
|-------------------------|---------------------------------|


  D5        Bb               G/B                  Bb           C
   E E  E E  E  E  E          E    +E  E E         E  +E  E     E   E
|--------------------------------|---------------------------------------|
|--------------------------------|---------------------------------------|
|--------------------------------|-------0-------------------------------|
|-------0-------0--3-------------|-----0------------------0---------2----|
|----0----0--1----------------2--|-(2)-------------1--(1)------/3--------|
|--0-----------------------------|---------------------------------------|
|
|  ~~     ~~~~~~
|  Q    E E +Q     S     +S  +E    +Q    S    +S  +E  +E  E    +E  +E
|--------------------------------|---------------------------------------|
|--------------------------------|---------------------------------------|
|-10---10-7-(7)---[2]b3==(2)r(2)-|-(2)-----------------------------------|
|--------------------------------|-------3b5==(3)r(3)-(3)----------------|
|--------------------------------|------------------------3b5==(3)r(3)S==|
|--------------------------------|---------------------------------------|


  D5      Bb      G/B          Gm/Bb
  E E E E  E  E E  E   +E  E E E   +E    E     E    E
|--------------------|-----------------------------------|
|--------------------|-----------------------------------|
|--------------------|-------0-----------------0---------|
|-----0-------0-3----|-----0-------------0---------------|
|---0---0--1-------2-|-(2)-----1---(1)-------------------|
|-0------------------|------------------------------3----|
|
| ~     ~~~~~~
|                                   |---3---|  |---3---|
| Q   E E +E  E E  E   +E  Q   S S  E  E    E  E  E    E
|--------------------|-----------------------------------|
|--------------------|-----------------------------------|
|--------------------|---------------------------10------|
|-------3-(3)---3-/8-|-(8)-7---5s7-10--7---10s12------12-|
|-5---5-------5------|-----------------------------------|
|--------------------|-----------------------------------|


  F5                              G5           Eb5
   E E  E  E   E    E   E     E     E  E E E E Q.
|-------------------------------|----------------------------|
|-------------------------------|----------------------------|
|-------------------------------|----------------------------|
|-------3------3----------------|--------5---5---------------|
|----3-----3--------3---------3-|------5---5---1-------------|
|--3--------------------3-------|---5----------1-------------|
|
|  ~~      ~~~~~~~
|  Q    E  E  +E    E  +E     E    +E  E E E E E   S S S S
|-------------------------------|----------------------------|
|-------------------------------|----------------------------|
|-10---10---------/12-(12)\-/10-|-(10)s7-5-------------------|
|---------10-(10)---------------|----------7-5-5b7-5p3-------|
|-------------------------------|----------------------5p3---|
|-------------------------------|----------------------------|


  D5                   Bb             G/B
  E      E     E     E  E     E     E  E
|-------------------------------------------|
|-------------------------------------------|
|-------------------------------------------|
|--------------0--------------0-----3-------|
|--------0-----------0--1--------------2----|
|-0-----------------------------------------|
|
| E a a  S  S  S  S  E  S  S  S  S  E  S  S
|-------12h13p12-------12h13p12----12-12h13p|
|-----x----------13-------------13----------|
|---x---------------14----------------------|
|-------------------------------------------|
|-------------------------------------------|
|-------------------------------------------|


                  Gm/Bb
  +E      E  E     E    +E   E  E       E
|-------------------------------------------------------|
|-------------------------------------------------------|
|------------0------------------0-----------------------|
|---------0------------------0--------------------------|
|-(2)--------------1----(1)-----------------------------|
|---------------------------------------3---------------|
|
|  S   S  E  S  S  S  S  E   E  E      +T   +T   +T   T
|-12--------12h13p12------------------------------------|
|-----13-------------13-----13-13b15==(13)-(13)r(13)p10-|
|--------14-------------12------------------------------|
|-------------------------------------------------------|
|-------------------------------------------------------|
|-------------------------------------------------------|


  D5               Bb                      G/B
   E  E E  E        E       E         E     E
|---------------------------------------------|
|---------------------------------------------|
|---------------------------------------------|
|-------0-------------------0---------3-------|
|-----0----0--------1-----------------------2-|
|--0------------------------------------------|
|
|  ~~~                                      ~~~
|          |--3--|          |--3---|
|  Q.      S  S  S  E      +S   S  S  S  S  E
|---------------------------------------------|
|-13------10h13p10----------------------------|
|------------------12pb14r(12)p10----10-12-12-|
|---------------------------------12----------|
|---------------------------------------------|
|---------------------------------------------|


                  Bb             C         D5          Bb        G/B
   +E  E  E        E       +E  E  E  E     E E  E    E   E   E E  E
|----------------------------------------|--------------------------|
|----------------------------------------|--------------------------|
|---------0------------------------------|--------------------------|
|------0-----------------------0-----2---|------0------------0-3----|
|--(2)-------------1-------(1)---/3------|---0-------0---1--------2-|
|----------------------------------------|-0------------------------|
|
|~~~~~~                     ~~~
|         |------6-------|
|  +Q     S  S  S  S  S  S  Q.      +E     Q    Q       +E   Q    E
|----------------------------------------|-----20b22---(20)-20---18-|
|----------------------------------------|--------------------------|
|-(12)---12p10---------------------------|--------------------------|
|--------------12p10---------------------|--------------------------|
|--------------------12p10s=8-------(8)\-|--------------------------|
|----------------------------------------|--------------------------|


                Gm/Bb
  +E  E      E   E       +E  E   E       E
|---------------------------------------------------|
|---------------------------------------------------|
|------------0-------------------0------------------|
|-----0----------------------0----------------------|
|-(2)------------1-------(1)------------------------|
|----------------------------------------3----------|
|
|                         ~~~
|                |--3--|         |-------6--------|
|  E.    S  +E   S  S  S  Q     +E    S  S  S  T  T
|-17----18-(18)-18-17----17----(17)\-------------13-|
|---------------------20----------------------15----|
|------------------------------------------14-------|
|---------------------------------------15----------|
|------------------------------------17-------------|
|---------------------------------------------------|


  F5
  Gtrs III, IV
   <
   PM------------------------------------------------------------|
   E        E        E        E        E        E        E        E
|-----------------------------------------------------------------------------|
|-----------------------------------------------------------------------------|
|-----------------------------------------------------------------------------|
|-----------------------------------------------------------------------------|
|--3--------3--------3--------3--------3--------3--------3--------3-----------|
|--3--------3--------3--------3--------3--------3--------3--------3-----------|
|
|                    T        T              T  T        T
|  |------6-------|  |------6-------|  |------6-------|  |--6--|  |--3---|
|  S  S  S  S  S  S  S  S  S  S  S  S  S  S  S  S  S  S  S  S  S  S  S   S
|-17p13-17p13----13-20p17p13-22p17p13-17p13----20p17p13-22p17p13-20p13-(13)\--|
|-------------15----------------------------15--------------------------15\---|
|-----------------------------------------------------------------------------|
|-----------------------------------------------------------------------------|
|-----------------------------------------------------------------------------|
|-----------------------------------------------------------------------------|


  G5                                              Eb5
   PM
   E        E        E        E           E        Q.
|----------------------------------------------------------------------------|
|----------------------------------------------------------------------------|
|----------------------------------------------------------------------------|
|--------------------------------------------------1-------------------------|
|--5--------5--------5--------5-----------5--------1-------------------------|
|--5--------5--------5--------5-----------5--------1-------------------------|
|
|              T              T           T        T                 T
|  |------6-------|  |--------6--------|  |------6-------|  |------6-------|
|  S  S  S  S  S  S  S  S  S  T  T  S  S  S  S  S  S  S  S  S  S  S  S  S  S
|-10h13p10h13-15p13p10h13p10-15s16-13-10-15p13p10----------------------------|
|-------------------------------------------------15p13p10-------------------|
|----------------------------------------------------------13p12p10----------|
|-------------------------------------------------------------------15p12p10-|
|----------------------------------------------------------------------------|
|----------------------------------------------------------------------------|


  D5
   W
|-------||
|-------||
|-------||
|--0----||
|--0----||
|--0----||
|
|  ~~
|  W
|-------||
|-------||
|-------||
|-------||
|-\8----||
|-------||


 Chorus
  Bb5                       G5         F#5      G5
  Gtrs III, IV
   E.  S +E  E E. S +E  E   E. S +E  E E. S +E  E
|-------------------------|-----------------------|
|-------------------------|-----------------------|
|-------------------------|-----------------------|
|-------------------------|-----------------------|
|--8---8-(8)-8-8--8-(8)-8-|-5--5-(5)-5-4--4-(4)-5-|
|--8---8-(8)-8-8--8-(8)-8-|-5--5-(5)-5-4--4-(4)-5-|
|
| Gtr V
| +Q      Q    H            W
|-------------------------|-----------------------|
|-------------------------|-----------------------|
|-------------------------|-----------------------|
|-------------------------|-----------------------|
|-(8)\--------------------|-----------------------|
|-------------------------|-----------------------|


  C5                         Eb5
  E. S +S  S E S E S E S S   E. S +E  E Q  E S S
|--------------------------|---------------------|
|--------------------------|---------------------|
|--------------------------|---------------------|
|-5--5-(5)-5-5-5-5-5-5-5-5S|=8--8-(8)-8-8--8-8-8-|
|-3--3-(3)-3-3-3-3-3-3-3-3S|=6--6-(6)-6-6--6-6-6-|
|--------------------------|---------------------|
|
| W                          W
|--------------------------|---------------------|
|--------------------------|---------------------|
|--------------------------|---------------------|
|--------------------------|---------------------|
|--------------------------|---------------------|
|--------------------------|---------------------|


  Bb5                     G5         F#5      G5
  E. S +E  E E. S +E  E   E. S +E  E E. S +E  E
|-----------------------|-----------------------|
|-----------------------|-----------------------|
|-----------------------|-----------------------|
|-----------------------|-----------------------|
|-8--8-(8)-8-8--8-(8)-8-|-5--5-(5)-5-4--4-(4)-5-|
|-8--8-(8)-8-8--8-(8)-8-|-5--5-(5)-5-4--4-(4)-5-|


  C5                         Eb5
  E. S +S  S E S E S E S S   E. S +E  E Q  E S S
|--------------------------|---------------------||
|--------------------------|---------------------||
|--------------------------|---------------------||
|-5--5-(5)-5-5-5-5-5-5-5-5S|=8--8-(8)-8-8--8-8-8-||
|-3--3-(3)-3-3-3-3-3-3-3-3S|=6--6-(6)-6-6--6-6-6-||
|--------------------------|---------------------||


   Outro
    N.C.
    Gtrs III, IV
      PM------------------------------------------|
    E e S S S S e S S S S S S   E S S S S S S e S S S S S S
||----------------------------|-----------------------------|
||o---------------------------|-----------------------------|
||----------------------------|-----------------------------|
||----------------------------|-----------------------------|
||o---------------------------|-----------------------------|
||--1-0-0-0---0-0-0-0---0-0-0-|---0-0-0-0---0-0-0-0---0-3-6-|


                             1.
  N.C.
    PM------------------------------------------|
  E e S S S S e S S S S S S   E S S S S S S e S S S S S S
|---------------------------|------------------------------||
|---------------------------|-----------------------------o||
|---------------------------|------------------------------||
|---------------------------|------------------------------||
|---------------------------|-----------------------------o||
|-1-0-0-0---0-0-0-0---0-0-0-|---0-0-0-0---0-0-0-0---0-1-3--||


  2.
  PM----------|
  E S S S S S S S S S S S S S s
|-------------------------------*|
|-------------------------------*|
|-------------------------------*|
|-------------------------------*|
|-----------------------5h8p5---*|
|---0-0-0-0---0---0-5h6-------3-*|




--------------------------------------------------------------------------------


Duration Legend
---------------
W - whole; H - half; Q - quarter; E - 8th; S - 16th; T - 32nd; X - 64th; a - acciaccatura
+ - note tied to previous; . - note dotted; .. - note double dotted
Uncapitalized letters represent notes that are staccato (1/2 duration)
Irregular groupings are notated above the duration line
Duration letters will always appear directly above the note/fret number it represents the
duration for.  Duration letters with no fret number below them represent rests.  Multi-
bar rests are notated in the form Wxn, where n is the number of bars to rest for.  Low
melody durations appear below the staff

Tablature Legend
----------------
 h   - hammer-on
 p   - pull-off
 b   - bend
 pb  - pre-bend
 r   - bend release (if no number after the r, then release immediately)
 /\  - slide into or out of (from/to "nowhere")
 s   - legato slide
 S   - shift slide
 - natural harmonic
[n]  - artificial harmonic
n(n) - tapped harmonic
 ~   - vibrato
 tr  - trill
 T   - tap
 TP  - trem. picking
 PM  - palm muting
\n/  - tremolo bar dip; n = amount to dip
 \n  - tremolo bar down
 n/  - tremolo bar up
/n\  - tremolo bar inverted dip
 =   - hold bend; also acts as connecting device for hammers/pulls
 <> - volume swell (louder/softer)
 x   - on rhythm slash represents muted slash
 o   - on rhythm slash represents single note slash

Misc Legend
-----------
 |  - bar
||  - double bar
||o - repeat start
o|| - repeat end
*|  - double bar (ending)
 :  - bar (freetime)
 $  - Segno
 &  - Coda
Tempo markers -  = BPM(8/16=s8/s16), where s8 = swing 8ths, s16 = swing 16ths
Suggest correction
comments
print report bad tab
3 comments total.
0 reply
Chickenboot 2,344 Dec 09, 2010 05:57 PM

The way you tabbed the verse in my opinion is a BIT confusing, but it is correct. You also missed a little bit in the chorus, but otherwise, the solo is better than my version, so I'll give it four stars. Good job!

0 reply
slash.r0cks 4,810 Dec 12, 2010 11:50 PM

Thanks dude. I exported this from Power Tab, which is why it's a bit weird; however, I'm not sure where I missed soemthing in the chorus, let me know what you're thinking. FYI, I tab everything as if I wanted someone to open a tab book and see it. THat's why I've got the bass drum fill, the werid formatting, etc. :)

0 reply
Raining hard 98 10 Dec 19, 2011 04:30 AM

Just a little confusing but otherwise very good 4 stars

guest
You may want to rate the tab now too:
select rating
Wanna post a correction for this tab? Suggest correction