Oops, an error
Loading. Please wait.

Asylum Tab

version 1
version 1

Intro

Whole song

Interactive

10,766 views 9 this week
5 commentsread comments
1 2 3 4 5
2 more votes to show rating
add to favorites
launch autoscroll
font size
0
reset
how to read this tab
guitar tuner
Autoscroll
slow
fast
+/-
esc
set tempo
stop
Help us to improve Ultimate-Guitar.com Take our survey!
×
Author
Difficulty
Tuning
intermediate
C# G# C# F# A# D#
Song: Asylum(?)
Artist: Disturbed
Tabbed by: Zack Buster
Tuning: Drop C# (C#-G#-C#-F#-A#-D#)

This is from the clip that's been going around on YouTube.
I tried to figure it out by ear, and this is what I've come up with...

D#|-------------------------------|
A#|-------------------------------|
F#|-------------------------------|
C#|-----7h8p7--5h7p5--------------|
G#|----------8------6-8---5h6p5---|
C#|-0-0-----------------7------8--|
    * *

D#|-------------------------------|
A#|-------------------------------|
F#|-------------------------------|
C#|-----7h8p7--5---5h7p5----------|
G#|----------8---7------6-8---5-6-|
C#|-0-0---------------------7-----|
    * *

Again, this is JUST the portion that's been revealed so far.
If you have comments/corrections (I am VERY open to suggestions),
drop me an e-mail at ZackBusterZ@gmail.com.

Hopefully this is right, or at least close. Can't wait for the album
to be released on August 24th! Keep rocking, Disturbed Ones!
Suggest correction
Give kudos to tab author, rate the tab!
1 2 3 4 5
comments
print report bad tab
5 comments total. Showing first comments.
+2 reply
yanksandjetsfan 135 Jun 18, 2010 03:20 PM

Close, but this is the correct version

D#|--------------------------------|
A#|--------------------------------|
F#|--------------------------------|
C#|-----7h8p7--5h7p5--5------------|
G#|----------8------6---6--5h6p5---|
C#|-0-0-------------------------8--|
* *

D#|--------------------------------|
A#|--------------------------------|
F#|--------------------------------|
C#|-----7h8p7--7---5h7p5--5--------|
G#|----------8---8------6---6-5h6--|
C#|-0-0----------------------------|
* *

0 reply
Adisturbedone 30 Jul 16, 2010 05:38 PM

The album isn't being released on the August 24, its the 31

-2 reply
AremRed 10 Jul 19, 2010 01:01 PM

This is not a part of the song "Asylum". I too thought that the video going around was the intro for Asylum, but now that Asylum has been released, it must be another song. I think this is the intro to the first song on the album, which is named "Remnants".

guest
You may want to rate the tab now too:
select rating
Wanna post a correction for this tab? Suggest correction