Oops, an error
Loading. Please wait.

Asylum Bass Tab

version 2
version 2

Whole song

Interactive

4,764 views 1 this week
no commentswrite comment
1 2 3 4 5
please rate
add to favorites
launch autoscroll
font size
0
reset
guitar tuner
Autoscroll
slow
fast
+/-
esc
set tempo
stop
Help us to improve Ultimate-Guitar.com Take our survey!
×
Author
Difficulty
intermediate
This is the exact same thing as the 1st version only more... convenient. Anyways, the 
first part I know is correct. Not so much on the chorus and other stuff. Rate me to tell 
me how I did
	Title: Asylum
		Artist: Disturbed
			Album: Asylum
				Length:4:36
Intro(5x)
F#|----------------------------|----------------------------|
C#|----------------------------|----------------------------|
G#|----------------------------|----------------------------|
D#|--12-0--0--0--0--13-0--0----|--5--0--0--6--0--0--6--3----|

F#|----------------------------|----------------------------|
C#|----------------------------|----------------------------|
G#|----------------------------|----------------------------|
D#|--12-0--0--13-0--0--5--0----|--0--6--0--0--3--3--3--3----|
Then...
F#----------------------------|----------------------------|
C#----------------------------|----------------------------|
G#----------------------------|----------------------------|
D#--12-0--0--0--0--13-0--0----|--5--0--0--6--0--0--6--3----|

F#----------------------------|----------------------------|
C#----------------------------|----------------------------|
G#----------------------------|----------------------------|
D#--12-0--0--13-0--0--5--0----|--0--6--0--0--8--8--8--8----|
Pre-Verse		Release Me!...
F#|----------------------------|----------------------------|
C#|----------------------------|----------------------------|
G#|----------------------------|----------------------------|
D#|--12-0--0--0--0--13-0--0----|--5--0--0--6--0--0--6--3----|

F#|----------------------------|----------------------------|
C#|----------------------------|----------------------------|
G#|----------------------------|----------------------------|
D#|--12-0--0--13-0--0--5--0----|--0--6--0--0--3--3--3--3----|

F#----------------------------|----------------------------|
C#----------------------------|----------------------------|
G#----------------------------|----------------------------|
D#--12-0--0--0--0--13-0--0----|--5--0--0--6--0--0--6--3----|

F#----------------------------|----------------------------|
C#----------------------------|----------------------------|
G#----------------------------|----------------------------|
D#--12-0--0--13-0--0--5--0----|--0--6--0--0--8--8--8--8----|
Verse 1 (3x)		No remnants of were ever...
F#----------------------------|----------------------------|
C#----------------------------|----------------------------|
G#----------------------------|----------------------------|
D#--12-0--0--0--0--13-0--0----|--5--0--0--6--0--0--6--3----|

F#----------------------------|----------------------------|
C#----------------------------|----------------------------|
G#----------------------------|----------------------------|
D#--12-0--0--13-0--0--5--0----|--0--6--0--0--3--3--3--3----|
Then...
F#----------------------------|----------------------------|
C#----------------------------|----------------------------|
G#----------------------------|----------------------------|
D#--12-0--0--0--0--13-0--0----|--5--0--0--6--0--0--6--3----|




F#----------------------------|----------------------------|
C#----------------------------|----------------------------|
G#----------------------------|----------------------------|
D#--12-0--0--13-0--0--5--0----|--0--6--0--0--8--8--8--8----|
(Pre-Chorus)
Cool Off(2x)		The loneliness is...
F#----------------------------|----------------------------|
C#----------------------------|----------------------------|
G#----------------------------|----------------------------|
D#--12-0--0--0--0--13-0--0----|--5--0--0--6--0--0--6--3----|

F#----------------------------|----------------------------|
C#----------------------------|----------------------------|
G#----------------------------|----------------------------|
D#--12-0--0--13-0--0--5--0----|--0--6--0--0--3--3--3--3----|
Then...
F#----------------------------|----------------------------|
C#----------------------------|----------------------------|
G#----------------------------|----------------------------|
D#--12-0--0--0--0--13-0--0----|--5--0--0--6--0--0--6--3----|

F#----------------------------|----------------------------|
C#----------------------------|----------------------------|
G#----------------------------|----------------------------|
D#--12-0--0--13-0--0--5--0----|--0--6--0--0--8--8--8--8----|
Verse 2			Will I ever Know...
F#----------------------------|----------------------------|
C#----------------------------|----------------------------|
G#----------------------------|----------------------------|
D#--12-0--0--0--0--13-0--0----|--5--0--0--6--0--0--6--3----|

F#----------------------------|----------------------------|
C#----------------------------|----------------------------|
G#----------------------------|----------------------------|
D#--12-0--0--13-0--0--5--0----|--0--6--0--0--3--3--3--3----|

F#----------------------------|----------------------------|
C#----------------------------|----------------------------|
G#----------------------------|----------------------------|
D#--12-0--0--0--0--13-0--0----|--5--0--0--6--0--0--6--3----|

F#----------------------------|----------------------------|
C#----------------------------|----------------------------|
G#----------------------------|----------------------------|
D#--12-0--0--13-0--0--5--0----|--0--6--0--0--8--8--8--8----|
(Pre-Chorus)
(Chorus)
(Out-Chorus)
Cool Off
F#----------------------------|----------------------------|
C#----------------------------|----------------------------|
G#----------------------------|----------------------------|
D#--12-0--0--0--0--13-0--0----|--5--0--0--6--0--0--6s-3----|

F#----------------------------|----------------------------|
C#----------------------------|----------------------------|
G#----------------------------|----------------------------|
D#--12-0--0--13-0--0--5--0----|--0--6--0--0--3--3--3--3----|
Verse Suspense		Death’s images are...
F#----------------------------|----------------------------|
C#----------------------------|----------------------------|
G#----------------------------|----------------------------|
D#--12-0--0--0--0--13-0--0----|--5--0--0--6--0--0--6s-3----|



F#----------------------------|----------------------------|
C#----------------------------|----------------------------|
G#----------------------------|----------------------------|
D#--12-0--0--13-0--0--5--0----|--0--6--0--0--8--8--8--8----|
Verse 3			I know I’ll never...
F#----------------------------|----------------------------|
C#----------------------------|----------------------------|
G#----------------------------|----------------------------|
D#--12-0--0--0--0--13-0--0----|--5--0--0--6--0--0--6s-3----|

F#----------------------------|----------------------------|
C#----------------------------|----------------------------|
G#----------------------------|----------------------------|
D#--12-0--0--13-0--0--5--0----|--0--6--0--0--3--3--3--3----|
Then...
F#----------------------------|----------------------------|
C#----------------------------|----------------------------|
G#----------------------------|----------------------------|
D#--12-0--0--0--0--13-0--0----|--5--0--0--6--0--0--6s-3----|

F#----------------------------|----------------------------|
C#----------------------------|----------------------------|
G#----------------------------|----------------------------|
D#--12-0--0--13-0--0--5--0----|--0--6--0--0--8--8--8--8----|
(Pre-Chorus)
(Chorus)
Play during guitar solo along with the percussion
F#-------|----|
C#-------|----|
G#-------|----|
D#--0----|-0--|
Pre-Bridge (4x)		In the end there...
F#----------------------------|----------------------------|
C#----------------------------|----------------------------|
G#--5--8--8--8--8--5--5--5----|-----------2--2--2--5--8----|
D#----------------------------|--0--0--0-------------------|

F#----------------------------|----------------------------|
C#----------------------------|----------------------------|
G#-----------2--2--2--5--5----|--5--8--8--8--8--5--5--5----|
D#--0--0--0-------------------|----------------------------|
Bridge
F#----------------------------|----------------------------|
C#----------------------------|----------------------------|
G#-----------2--2--2--5--5----|--3--------3--3--3--3L------|
D#--0--0--0-------------------|----------------------------|

F#----------------------------|----------------------------|
C#----------------------------|----------------------------|
G#--3--3--3--3--3-----5-------|----------------------------|
D#----------------------------|--5--5--5--5--5--5--5--5----|

F#----------------------------|----------------------------|
C#----------------------------|----------------------------|
G#----------------------------|--3--------3--3--3--3L------|
D#--5--5--5--5--5--5--5--5----|----------------------------|




F#----------------------------|----------------------------|
C#----------------------------|----------------------------|
G#--3--3--3--3--3-----5-------|----------------------------|
D#----------------------------|--0--0--0--0--0--0--0--0----|

F#----------------------------|----------------------------|
C#----------------------------|----------------------------|
G#----------------------------|--3--------3--3--3--3L------|
D#--0--0--0--0--0--0--0--0----|----------------------------|

F#----------------------------|----------------------------|
C#----------------------------|----------------------------|
G#--3--3--3--3--3-----5-------|----------------------------|
D#----------------------------|--5--5--5--5--5--5--5--5----|

F#----------------------------|----------------------------|
C#----------------------------|----------------------------|
G#----------------------------|--2--------2--2--2--2L------|
D#--5--5--5--5--5--5--5--5----|----------------------------|

F#----------------------------|----------------------------|
C#----------------------------|----------------------------|
G#--2--2--2--2--2--2--2--2----|--2--1--1--1--1--1--1--1----|
D#----------------------------|----------------------------|
(Pre-Chorus)
(Chorus)
(Out Chorus)
Outro (Repeat until the end of the song)
F#----------------------------|----------------------------|
C#----------------------------|----------------------------|
G#----------------------------|----------------------------|
D#--12----0--0--0--13-0--0----|--5--0--0--6--0--0--6s-3----|

F#----------------------------|----------------------------|
C#----------------------------|----------------------------|
G#----------------------------|----------------------------|
D#--12----0--0--0--0--0--0----|--0--0--0--0--0--0--0--0----|





Pre-Chorus (2x)		Terror is coursing in...
F#----------------------------|----------------------------|
C#----------------------------|----------------------------|
G#--2--2--2--2--2-------------|----------------------------|
D#-----------------1--1--1----|--0--0--0--0--3--3--3--3----|

F#----------------------------|----------------------------|
C#----------------------------|----------------------------|
G#--2--2--2-------------------|----------------------------|
D#-----------1--1--1--0--0----|--0--3--3--3--5--5--5--5----|

Chorus(2x)		And feel you die...
F#----------------------------|
C#----------------------------|
G#--7-------------------------|
D#--------0--0--0--0--0--1----|

F#----------------------------------------------------|
C#----------------------------------------------------|
G#----------------------------------------------------|
D#--1-----0-----0-----0-----0-----0-----0--0--0-------|

F#----------------------------|
C#----------------------------|
G#----------------------------|
D#--0--6--0--0--0--0--0--1----|

Then...
F#--------------------------------------------------------------------|
C#--------------------------------------------------------------------|
G#--------------------------------------------------------------------|
D#--1------0-------0--------0------0------3-----------3----------3----|

F#----------------------------|
C#----------------------------|
G#--7-------------------------|
D#--------0--0--0--0--0--1----|

F#----------------------------------------------------|
C#----------------------------------------------------|
G#----------------------------------------------------|
D#--1-----0-----0-----0-----0-----0-----0--0--0-------|

F#----------------------------|
C#----------------------------|
G#----------------------------|
D#--0--6--0--0--0--0--0--1----|

Out Chorus		Overcome and the feeling...
F#----------------------------|----------------------------|
C#----------------------------|----------------------------|
G#----------------------------|----------------------------|
D#--5--------5--------5-------|--5--5--------5-----5-------|

F#----------------------------|----------------------------|
C#----------------------------|----------------------------|
G#----------------------------|----------------------------|
D#--7--7--7--7--7--7--7--7----|--7--3--3--3--3--3--3--3----|
Suggest correction
What's this?
You can suggest a correction to this tab. Community and Mods will review your correction and vote to approve or reject it.
comments
We did not receive enough feedback on this tab! Please rate:
print report bad tab
1 2 3 4 5
guest
You may want to rate the tab now too:
select rating
Please do not post tabs as comments. Select "correction" instead!