Oops, an error
Loading. Please wait.

Asylum Bass Tab

version 3
version 3

Whole song

Interactive

319 views 3 this week
no commentswrite comment
1 2 3 4 5
please rate
add to favorites
launch autoscroll
font size
0
reset
guitar tuner
Autoscroll
slow
fast
+/-
esc
set tempo
stop
Help us to improve Ultimate-Guitar.com Take our survey!
×
Author
Artist: Disturbed
Song: Asylum
Tabbed by: Redink524
Tuning: D#G#C#F#

Main riff(5x)
F#|-----------------------------------|
C#|-----------------------------------|
G#|-----------------------------------|
D#|--12-0-0-0-0-13-0-0-5-0-0-6-0-0-6-3|

F#|-----------------------------------|
C#|-----------------------------------|
G#|-----------------------------------|
D#|--12-0-0-13-0-0-5-0-0-6-0-0-3-3-3-3|

F#|-----------------------------------|
C#|-----------------------------------|
G#|-----------------------------------|
D#|--12-0-0-0-0-13-0-0-5-0-0-6-0-0-6-3|

F#|-----------------------------------|
C#|-----------------------------------|
G#|-----------------------------------|
D#|--12-0-0-13-0-0-5-0-0-6-0-0-8-8-8-8|

Pre-chorus x2
F#---------------------------------|
C#---------------------------------|
G#--2-2-2-2-2----------------------|
D#------------1-1-1-0-0-0-0-3-3-3-3|

F#----------------------------------|
C#----------------------------------|
G#--2-2-2---------------------------|
D#--------1-1-1-0-0-0-3-3-3-5-5-5-5-|

Main riff x2
Pre-chorus x2

Chorus A        
F#---------------------------------|
C#---------------------------------|
G#--7------------------------------|
D#-----0-0-0-0-0-1--0-0-0-0-0-0-0-0|

F#---------------------------------|
C#---------------------------------|
G#---------------------------------|
D#--6--0-0-0-0-0-1--0-0-0-0-0-0-0-0|

F#---------------------------------|
C#---------------------------------|
G#--7------------------------------|
D#-----0-0-0-0-0-1--0-0-0-0-0-0-0-0|

F#-----------------------------------|
C#-----------------------------------|
G#-----------------------------------|
D#--6--0-0-0-0-0-1--0-0-0-0-0-3--3--3| 

F#---------------------------------|
C#---------------------------------|
G#--7------------------------------|
D#-----0-0-0-0-0-1--0-0-0-0-0-0-0-0|

F#---------------------------------|
C#---------------------------------|
G#---------------------------------|
D#--6--0-0-0-0-0-1--0-0-0-0-0-0-0-0|

Chorus B                
F#--------------------------|
C#--------------------------|
G#--------------------------|
D#--5---5---5-----5--5--5-5-|

F#-----------------------------------|
C#-----------------------------------|
G#-----------------------------------|
D#--7-7-7-7-7-7-7-7-7-3-3-3-3-0-0-0-0|

main riff x3
Pre-chorus x2
Chorus A
Chorus B

Pre-bridge
F#--------------------------------------------|
C#--------------------------------------------|
G#--0---------------------0------------------0|
D#--------10-10-13-13-----------13-13-10-10---|

Bridge A (4x)           
F#------------------------------------------------|
C#------------------------------------------------|
G#------------------------------------------------|
D#--0-0-0-7-7-7-10-10-10-13-13-13-10-10-10-10-----|

F#--------------------|
C#--------------------|
G#--------------------|
D#--0-0-0-7-7-7-10-13-|

Bridge B
F#--------------------------------------------------------------|
C#--------------------------------------------------------------|
G#--3---3-3-3-3---3-3-3-3-3--5----------------------------------|
D#-------------------------------5-5-5-5-5-5-5-5-5-5-5-5-5-5-5-5|

F#--------------------------------------------------------------|
C#--------------------------------------------------------------|
G#--3---3-3-3-3---3-3-3-3-3--5----------------------------------|
D#-------------------------------0-0-0-0-0-0-0-0-0-0-0-0-0-0-0-0|

F#--------------------------------------------------------------|
C#--------------------------------------------------------------|
G#--3---3-3-3-3---3-3-3-3-3--5----------------------------------|
D#-------------------------------5-5-5-5-5-5-5-5-5-5-5-5-5-5-5-5|

F#---------------------------------------------------------------------|
C#---------------------------------------------------------------------|
G#--2---2-2-2-2---2-2-2-2-2-2-2-2-2-2----------------------------------|
D#-------------------------------------5-5-5-5-5-5-5-5-3-3-3-3-1-1-1-1-|

Chorus A
Chorus B (cut out last four notes)

Outro (Repeat until the end of the song)
F#----------------------------------|
C#----------------------------------|
G#----------------------------------|
D#--12-0-0-0-13-0-0-5-0-0-6-0-0-6-3-|

F#----------------------------------|
C#----------------------------------|
G#----------------------------------|
D#--12-0-0-0-0-0-0-0-0-0-0-0-0-0-0--|
Suggest correction
Give kudos to tab author, rate the tab!
1 2 3 4 5
comments
print report bad tab
guest
You may want to rate the tab now too:
select rating
Please do not post tabs as comments. Select "correction" instead!