Oops, an error
Loading. Please wait.

Asylum Tab

version 5
version 5

Whole song

Interactive

25,338 views 57 this week
5 commentsread comments
1 2 3 4 5
x 16
add to favorites
launch autoscroll
font size
0
reset
how to read this tab
guitar tuner
Autoscroll
slow
fast
+/-
esc
set tempo
stop
Help us to improve Ultimate-Guitar.com Take our survey!
×
Author
Song: Remnants
Artist: Disturbed
Album: Asylum
Tabbed by: Disturbed1DB


Clean Guitar (This repeats throughout the solo.)
D#|---------------|---------------|-------0-------|---------------|
A#|---------------|-------0-------|---------0-----|---------------|
F#|-------0-------|-----0---0---0-|-----0-----0---|-------0-------|
C#|-----2---2---2-|---2-------2---|---2---------2-|-----3---3---3-|
G#|---2-------2---|-3-------------|---------------|---3-------3---|
D#|-0-------------|---------------|-2-------------|-1-------------|


[Solo]

D#|---------------------------<5>-------------|
A#|-------------------------------<5>-<7>-----|
F#|---------------------------------------<7>-|
C#|-------------------------------------------|
G#|-/7~~~*--t<19>-t<14>-t<12>-----------------|
D#|-------------------------------------------|
*Sustain for the tapped harmonics.

D#|--------------------------------------------------------|
A#|---------------------9^11-9p7-/10-8-7--/8p7-/10-/12-/15-|
F#|----7-9-9~-7---7-9-7------------------------------------|
C#|-/9----------9------------------------------------------|
G#|--------------------------------------------------------|
D#|--------------------------------------------------------|

D#|-----14-15-15^17^15p14h15p14-----------------------|
A#|-/15-------------------------15-12-----------------|
F#|-----------------------------------14-12-----12-14-|
C#|-----------------------------------------/14-------|
G#|---------------------------------------------------|
D#|---------------------------------------------------|

D#|------------------------------------------|
A#|-------15-15----------15^17-15^17-15~-15~-|
F#|-14^16----14^16^14-12---------------------|
C#|------------------------------------------|
G#|------------------------------------------|
D#|------------------------------------------|

D#|---------------------------------|
A#|-7h8p7-------7h8p7-------7h8p7---|
F#|-------9-7-9-------9-7-9-------9-| Repeat once.
C#|---------------------------------|
G#|---------------------------------|
D#|---------------------------------|

D#|--------------------------------------------------------------------|
A#|-10h12p10----------10h12p10----------10h12p10-----------------------|
F#|----------12-11-12----------12-11-12----------12-10~-10~-10~-10~-7~-|
C#|--------------------------------------------------------------------|
G#|--------------------------------------------------------------------|
D#|--------------------------------------------------------------------|

D#|----------------------------------------------------------------------|
A#|-9-9^10*-9-8--15^17-15-13---------------------------------------------|
F#|--------------------------16-12--------------------14^16^14-12-----12-|
C#|--------------------------------14--12----12-14-12-------------/14----|
G#|---------------------------------------14-----------------------------|
D#|----------------------------------------------------------------------|
*Slow bend.

D#|-15^17-15-12-----17^19-17^19^17-15----15-|
A#|-------------15--------------------17----|
F#|-----------------------------------------|
C#|-----------------------------------------|
G#|-----------------------------------------|
D#|-----------------------------------------|

D#|-22^24-22-20-17h19p17----------19h22p19----17h19p17----|
A#|----------------------20-17-20----------20----------20-|
F#|-------------------------------------------------------|
C#|-------------------------------------------------------|
G#|-------------------------------------------------------|
D#|-------------------------------------------------------|

D#|-------------------17-------------------------------|
A#|-------17-19-20----------20----19----17-------17-19-|
F#|----16----------16----16----16----16----16-19-------|
C#|-19-------------------------------------------------|
G#|----------------------------------------------------|
D#|----------------------------------------------------|

D#|-------------------------------------------------------------|
A#|-17/19/17--------------------------------15-15---------------|
F#|----------16/19/16-12/14/12-----12-14^16----14^16p12---------|
C#|----------------------------/14----------------------14~~~~*-|
G#|-------------------------------------------------------------|
D#|-------------------------------------------------------------|
*Carries over into Asylum.


Song: Asylum
Artist: Disturbed
Album: Asylum
Tabbed By: Disturbed1DB


[Intro]

D#|----------------------------------------------|
A#|----------------------------------------------|
F#|----------------------------------------------|
G#|-14~~~~~~~~~~~~~~-------2---------------------|
C#|------------------------2---------------------|
D#|-------------------0000-0-00-0-000-0-0-0-12/--|
                      ****   ** * *** * * *


[Main Riff] 

(1/2)
D#|-------------------------------------------------------|
A#|-------------------------------------------------------|
F#|-------------------------------------------------------|
C#|-9------10-------------------9----10-------------------|
G#|-7------8-----7----8----8/5--7----8-----7----8----5555-|
D#|---0000----00-5-00-6-00-6/3----00----00-5-00-6-00-3333-|
      ****    **   **   **        **    **   **   **


[Main Riff] 

(2/2)
D#|-----------------------------------------------------------|
A#|-----------------------------------------------------------|
F#|-----------------------------------------------------------|
C#|-9------10-------------------9----10-----------------------|
G#|-7------8-----7----8----8/5--7----8-----7----8----10101010-|
D#|---0000----00-5-00-6-00-6/3----00----00-5-00-6-00-8-8-8-8--|
      ****    **   **   **        **    **   **   **


[Overdub 1] 

(1/2) (With Wah)
D#|-------------------------------------------------|
A#|--------13-12------------------------------------|
F#|-----12-------11-12------------------------------|
C#|-/14----------------14-14-9--9-10-9-10-10-9-9----|
G#|----------------------------------------------10-|
D#|-------------------------------------------------|


[Overdub 1] 

(2/2)
D#|----------17p16----17p16----19-----|
A#|----------------17-------17----17/-|
F#|-11-11-14--------------------------|
C#|-----------------------------------|
G#|-----------------------------------|
D#|-----------------------------------|


[Overdub 2]

D#|-<12>-<5>--------------------------<12>~~~-|
A#|-<12>-----<5>-<7^8^7>*-----<7>-------------|
F#|-<12>------------------<5>-----------------|
C#|-------------------------------<5>---------|
G#|-------------------------------------------|
D#|-------------------------------------------|
*Harmonic bend is achieved by pressing down on the string behind the bridge.


[Pre-Chorus] 

(1/2)
D#|-------------------------------------------|
A#|-------------------------------------------|
F#|-------------------------------------------|
C#|-------------------------------------------|
G#|-99999-333-22222-555--999-333-222-555-7777-|
D#|-77777-111-00000-333--777-111-000-333-5555-|


[Pre-Chorus] 

(2/2)
D#|-------------------------------------------|
A#|-------------------------------------------|
F#|-------------------------------------------|
C#|-------------------------------------------|
G#|-99999-333-22222-555--999-333-222-555------|
D#|-77777-111-00000-333--777-111-000-333-/19~-|


[Chorus] 

(1/4 & 3/4)
D#|--------------------------------------------------|
A#|--------------------------------------------------|
F#|--------------------------------------------------|
C#|-9/----------------------3------------------------|
G#|-7/------3-2-------------1----2----3--------------|
D#|----0000-1-0-00-00-000-0---00-0-00-1-0-000-00-000-|
       ****     ** ** *** *   **   **   * *** ** ***


[Chorus] 

(2/4)
D#|-------------------------------------------------|
A#|-------------------------------------------------|
F#|-------------------------------------------------|
C#|-9/----------------------3-----------------------|
G#|-7/------3-2-------------1----2----3-------5-5-5-|
D#|----0000-1-0-00-00-000-0---00-0-00-1-0-000-3-3-3-|
       ****     ** ** *** *   **   **   * *** ***


[Chorus] 

(4/4)
D#|---------------------------------------------------------|
A#|---------------------------------------------------------|
F#|---------------------------------------------------------|
C#|----------------------10---9--------9---10p9----9/7------|
G#|-7-7----7-7----7777------------10------------10-----10p9-|
D#|-5-5-XX-5-5-XX-5555-0----0---0----0---0------------------|
                       *    *   *    *   *

[Bridge 1] 

(1/2)
D#|----------------------------------------------|
A#|----------------------------------------------|
F#|-------------777-101010------------------7-10-|
C#|-9~--9---999------------1010-77------999------|
G#|-7~--777----------------8-8--55--777----------|
D#|-0~--0----------------------------------------|
         ** *** *** * * *           *** *** * *


[Bridge 1] 

(2/2)
D#|----------------------------------------|
A#|----------------------------------------|
F#|---------777-101010---------------------|
C#|-9---999------------1010-77------999--9-|
G#|-777----------------8-8--55--777------7-|
D#|-0--------------------------------------|


[Bridge 2] 

(1/2)
D#|----------------------------------------|
A#|----------------------------------------|
F#|----------------------------------------|
C#|-----444-777-10101010-777------444-7/10-|
G#|-222-222-555-8-8-8-8--555--222-222-5/8--|
D#|-000-----------------------000----------|


[Bridge 2] 

(2/2)
D#|--------------------------------------|
A#|--------------------------------------|
F#|--------------------------------------|
C#|-----444-777-10101010-777------444-77-|
G#|-222-222-555-8-8-8-8--555--222-222-55-|
D#|-000-----------------------000--------|


[Bridge 3] 

(1/4)
D#|-----------------------------------------------|
A#|-----------------------------------------------|
F#|-----------------------------------------------|
C#|-5-5-XX-4-4-XX-5-7-2----2----2----2----2---7---|
G#|-3-3-XX-3-3-XX-3-5-0-00-0-00-0-00-0-00-0-0-5-0-|
D#|-----------------------------------------------|
                        **   **   **   **   *   *


[Bridge 3] 

(2/4)
D#|------------------------------------|
A#|------------------------------------|
F#|------------------------------------|
C#|-5-5-XX-4-4-XX-5-7------------------|
G#|-3-3-XX-3-3-XX-3-5-2-22-2-22--------|
D#|-------------------0-00-0-00-<1/9>*-|
                        **   **
*Lightly touch the string and slide up for harmonics.


[Bridge 3] 

(3/4)
D#|----------------------------------------------|
A#|----------------------------------------------|
F#|----------------------------------------------|
C#|-5-5-XX-4-4-XX-5-7-2----2----2----2----2---3--|
G#|-3-3-XX-3-3-XX-3-5-0-00-0-00-0-00-0-00-0-0-1--|
D#|----------------------------------------------|
                        **   **   **   **   *   


[Bridge 3] 

(4/4)
D#|------------------------------------------|
A#|------------------------------------------|
F#|------------------------------------------|
C#|-4-4-XX-4-4-XX-4444-----------------------|
G#|-2-2-XX-2-2-XX-2222-9/8-888888-8/5-555555-|
D#|--------------------7/6-666666-6/3-333333-|


[Outro Riff]

D#|---------------------------------------------------------|
A#|---------------------------------------------------------|
F#|---------------------------------------------------------|
C#|-9------10-------------------9----------10p9----9/7------|
G#|-7------8-----7----8----8/5--7---------------10-----10p9-|
D#|---0000----00-5-00-6-00-6/3----00000000------------------|
      ****    **   **   **        ********    


[Outro Overdub 1] 

(With Wah)
D#|------------------------------|
A#|--------13-12-----------------|
F#|-----12-------11-12-----------|
C#|-/14----------------14-14-9~~-|
G#|------------------------------|
D#|------------------------------|


[Outro Overdub 2]

D#|-<12>-<5>--------------|
A#|-<12>-----<5>-<7^8^7>*-|
F#|-<12>------------------|
C#|-----------------------|
G#|-----------------------|
D#|-----------------------|
*Harmonic bend is achieved by pressing down on the string behind the bridge.


[Ending Note] 

(Guitar 1)
D#|----|
A#|----|
F#|----|
C#|-9/-|
G#|-7/-|
D#|----|


[Ending Note] 

(Guitar 2)
D#|-22^~~/-|
A#|--------|
F#|--------|
C#|--------|
G#|--------|
D#|--------|



Song Structure:

-Play Remnants first...

[Intro]
-Main Riff + Overdub 1 + Overdub 2
-Main Riff
-Main Riff
-Main Riff
-Pre-Chorus (Just first half twice.)
-Main Riff + Overdub 1 + Overdub 2
-Main Riff
[Pre-Chorus]
[Chorus]
-Main Riff
-(Electronics)
-Main Riff
[Pre-Chorus]
[Chorus]
[Bridge 1]
[Bridge 2]
[Bridge 2]
[Bridge 3]
[Chorus]
-Outro Riff + Outro Overdub 1 + Outro Overdub 2
 (^ Repeat until the end - 4 times total.)
-Ending Note



Lyrics:

Release me!
No remnants were ever found of it
Feeling the hot bile with every fake smile
Though no evidence was ever found
It never went away completely
I try to hide from the unholy sound of it
Another day gone; another night's dawn
Dark forces pull me underground
That never went away completely

How can I feel this empty?
I cannot recover this time
This loneliness is killing me

Will I never know peace of mind again?
I don't believe it - I can't achieve it
I think it all is just another sign
It never went away completely

Terror is coursing in me
Dreading the final moment when I have to dream and...
(Death's inside of me
Keeps a diligent watch on everything
Keeps a terrible hold on my belief
Just waiting for the moment when I...)
Feel you die

In asylum (I live a lie)
Don't you know I'm in love with you
And I wasn't ready
For asylum (Relive a lie)
To let go, now it's dragging me
Into your grave
Your asylum (Forgive the lie)
Overcome by the feeling that
I won't get to join you in time
For the loneliness is killing me

Death's images are all around again
They're right behind me - they're gonna find me
Judgement for the immortal sin
The debt was never paid, completely

Terror is coursing in me
Dreading the final moment when I have to dream and...
(Death's inside of me
Keeps a diligent watch on everything
Keeps a terrible hold on my belief
Just waiting for the moment when I...)
Feel you die

In asylum (I live a lie)
Don't you know I'm in love with you
And I wasn't ready
For asylum (Relive a lie)
To let go, now it's dragging me
Into your grave
Your asylum (Forgive the lie)
Overcome by the feeling that
I won't get to join you in time
For the loneliness is killing me

In the end there will be no suffering (More suffering)
In the end you will find out everything (Not anything)
In the end you may question your belief (What belief?)
In the end you will realize finally, how you were deceived

This has gone on too long (Too long...)
No more demonic dreams
Destroyer come tonight
Because her memory is killing me

In asylum (I live a lie)
I let go, now it's dragging me
Into your grave
For asylum (Relive the lie)
Overcome by the feeling that
I won't get to join you in time (Without you)
This world is not fulfilling me

Don't think I live in asylum, I live a lie
Don't want to live in asylum, I'll live a lie
Don't think I live in asylum, I live a lie



************************************

| >  Accented note
| /  Slide up
| p  Pull-off
| ~  Vibrato
| h  Hammer-on
| *  Natural harmonic

************************************
Suggest correction
comments
print report bad tab
5 comments total. Showing first comments.
+2 reply
slash.r0cks 4,810 Nov 06, 2010 11:39 PM

Only thing I had a problem with was the last part of the chorus; when Dan plays the single-note fill going into the Interlude, he PMs the 7th fret.

Still, that's not nearly enough to rate 5 stars. :D

0 reply
DJjeroenski 58 Mar 11, 2014 06:31 AM

you're missing one verse in yhe lyrics
but great tab definitely 5 stars!

-1 reply
toateridax2010 34 Nov 05, 2015 12:49 PM

Missing a line in the lyrics. Personally I'd just play this in Drop C# for the sake of simplicity.

guest
You may want to rate the tab now too:
select rating
Wanna post a correction for this tab? Suggest correction