Oops, an error
Loading. Please wait.

Avarice Bass Tab

version 1
version 1

Whole song

Interactive

760 views 1 this week
1 commentread comment
1 2 3 4 5
please rate
add to favorites
launch autoscroll
font size
0
reset
guitar tuner
Autoscroll
slow
fast
+/-
esc
set tempo
stop
Help us to improve Ultimate-Guitar.com Take our survey!
×
Song:Avarice 
Artist:Disturbed
Tuning D# A# F C

S=slide
L=legato


Intro

D#|------------------------|
A#|------------------------|
F |--4-------4-------4-----|
C |------------------------|


 
------------------------|
------------------------|
-----------4----4----4--|
------------------------|


 
------------------------|
------------------------|
--4-------4-------4-----|
------------------------|


------------------------|
------------------------|
------------------------|
-----------4----4----4--|



------------------------|
------------------------|
--4-------4-------4-----|
------------------------|


------------------------|
------------------------|
-----------4----4----4--|
------------------------|



------------------------|
------------------------|
--4-------4-------4-----|
------------------------|


 
-------------------------|
-------------------------|
-------------------------|
-----------4-----4-------|

Pre-Verse/Outro
  
|-------------------------------|
|-------------------------------|
|---7s-4-L----5s-4-L----5s-4-L--|
|-------------------------------|


--------------------------------|
--------------------------------|
--L--7s-4-L----5s-4--5s-4--5s-4-|
--------------------------------|


 
------------------------------|
------------------------------|
--7s-4-L----5s-4-L----5s-4-L--|
------------------------------|


  
---------------------------------||
---------------------------------||
--L--7s-4-L----5s-4--5s-4--5s-4--||
---------------------------------||


|-------------------------------|
|-------------------------------|
|---7s-4-L----5s-4-L----5s-4-L--|
|-------------------------------|


--------------------------------|
--------------------------------|
--L--7s-4-L----5s-4--5s-4--5s-4-|
--------------------------------|


 
------------------------------|
------------------------------|
--7s-4-L----5s-4-L----5s-4-L--|
------------------------------|


  
---------------------------------||
---------------------------------||
--L--7s-4-L----5s-4--5s-4--5s-4--||
---------------------------------||

Verse

---------------------------------|
--2------------------------------|
-----4-4-4-4-4---4-4-4-4-4---4-4-|
---------------------------------|



----------------------------------|
------------------0-----0-----0---|
--4-4-4---4-4-4-4---4-4---4-4---4-|
----------------------------------|



---------------------------------|
--2------------------------------|
-----4-4-4-4-4---4-4-4-4-4---4-4-|
---------------------------------|


 
----------------------------------|
------------------0-----0-----0---|
--4-4-4---4-4-4-4---4-4---4-4---4-|
----------------------------------|


 
---------------------------------|
--2------------------------------|
-----4-4-4-4-4---4-4-4-4-4---4-4-|
---------------------------------|


 
----------------------------------|
------------------0-----0-----0---|
--4-4-4---4-4-4-4---4-4---4-4---4-|
----------------------------------|


---------------------------------|
--2------------------------------|
-----4-4-4-4-4---4-4-4-4-4---4-4-|
---------------------------------|



----------------------------------|
------------------0-----0-----0---|
--4-4-4---4-4-4-4---4-4---4-4---4-|
----------------------------------|


Chorus 
--------------------------|
--------------------------|
--0--0--0-----------------|
-----------4--4--4--1--1--|


  
--------------------------|
--------------------------|
--------------------------|
--1--2--2--2--1--1--2--1--|

  
--------------------------|
--------------------------|
--0--0--0-----------------|
-----------4--4--4--1--1--|


                 PM PM PM PM PM PM  
  
-----------------------------------|
-----------------------------------|
-----------------------------------|
--1--4--4--4--1--0--0--0--0--0--0--|


   
--------------------------|
--------------------------|
--0--0--0-----------------|
-----------4--4--4--1--1--|


 
--------------------------|
--------------------------|
--------------------------|
--1--2--2--2--1--1--2--1--|

  
--------------------------|
--------------------------|
--0--0--0-----------------|
-----------4--4--4--1--1--|


                 PM PM PM PM PM PM  
  
-----------------------------------|
-----------------------------------|
-----------------------------------|
--1--4--4--4--1--0--0--0--0--0--0--|

Breakdown      
--------------------|--------------------|
--------------------|--------------------|
-----------0--------|--L--------1--------|
--4-----------------|--------------------|



--------------------|--------------------|
--------------------|--------------------|
-----------0--------|--L--------1--------|
--4-----------------|--------------------|


      
--------------------|--------------------|
--------------------|--------------------|
-----------0--------|--L--------1--------|
--4-----------------|--------------------|


                                   PM PM PM  
 
--------------------|-----------------------|
--------------------|-----------------------|
-----------0--------|--L--------0-----------|
--4-----------------|--------------0--0--0--|


      
--------------------|--------------------|
--------------------|--------------------|
-----------0--------|--L--------1--------|
--4-----------------|--------------------|


       
--------------------|--------------------|
--------------------|--------------------|
-----------0--------|--L--------1--------|
--4-----------------|--------------------|

    
--------------------|--------------------|
--------------------|--------------------|
-----------0--------|--L--------1--------|
--4-----------------|--------------------|


                                   PM PM PM  
 
--------------------|-----------------------|
--------------------|-----------------------|
-----------0--------|--L--------0-----------|
--4-----------------|--------------0--0--0--|


      
--------------------|--------------------|
--------------------|--------------------|
-----------0--------|--L--------1--------|
--4-----------------|--------------------|

    
--------------------|--------------------|
--------------------|--------------------|
-----------0--------|--L--------1--------|
--4-----------------|--------------------|


      
--------------------|--------------------|
--------------------|--------------------|
-----------0--------|--L--------1--------|
--4-----------------|--------------------|


      
--------------------|
--------------------|
-----------0--------|
--4-----------------|


              PM PM PM   
  
-----------------------||
-----------------------||
--L--------0-----------||
--------------0--0--0--||


Intro
Pre-Verse
Verse 1
Chorus
Pre-Verse
Verse 2
Chorus 
Breakdown
Chorus
Outro
Suggest correction
What's this?
You can suggest a correction to this tab. Community and Mods will review your correction and vote to approve or reject it.
comments
We did not receive enough feedback on this tab! Please rate:
print report bad tab
1 2 3 4 5
1 comment total.
0 reply
slash.r0cks 5,389 wrote on June 30 2010, 07:01 am

Wrong tuning and the bassist uses 5 strings.

guest
You may want to rate the tab now too:
select rating
Please do not post tabs as comments. Select "correction" instead!