Oops, an error
Loading. Please wait.

Avarice Bass Tab

version 2
version 2

Whole song

Interactive

651 views 1 this week
no commentswrite comment
1 2 3 4 5
1 last vote to show rating
add to favorites
launch autoscroll
font size
0
reset
guitar tuner
Autoscroll
slow
fast
+/-
esc
set tempo
stop
Help us to improve Ultimate-Guitar.com Take our survey!
×
Author
Difficulty
#----------------------------------PLEASE NOTE---------------------------------#
#This file is the author's own work and represents their interpretation of the #
#song. You may only use this file for private study, scholarship, or research. #
#------------------------------------------------------------------------------#

AVARICE (Bassline)
As recorded by Disturbed
(From the 2005 Album TEN THOUSAND FISTS)




 Words and Music by Disturbed

 

Gtr I (Bb Db Gb Db Gb) - 'John Moyer'


 Intro
  Moderately Q=132
 4/4
  Gtr I
  E E E E +Q   Q    +H     E. S +E  E   E E E E +Q   Q    +H     E. S +E  E
|-----------------|-------------------|-----------------|--------------------|
|-----------------|-------------------|-----------------|--------------------|
|-1-----1-(1)--1--|-(1)----1--1-(1)-2-|-1-----1-(1)--1--|-(1)----------------|
|-----------------|-------------------|-----------------|--------3--3-(3)-3--|
|-----------------|-------------------|-----------------|--------------------|


  E E E E +Q   Q    +H     E. S +E  E   E E E E +Q   Q    +H     Q  E E
|-----------------|-------------------|-----------------|---------------|
|-----------------|-----------------3-|-----------------|---------------|
|-1-----1-(1)--1--|-(1)----1--1-(1)---|-1-----1-(1)--1--|-(1)----1--2---|
|-----------------|-------------------|-----------------|---------------|
|-----------------|-------------------|-----------------|---------------|


    $
    S S S S S S S S S S S S S S S S   S S S S S S S S S S S S S S S S   4x
||----------------------------------|-----------------------------------||
||o---------------------------------|----------------------------------o||
||--4p1-1-1-1-1-2p1-1-1-1-1-2p1-1-1-|-1-1-4p1-1-1-1-1-2p1-1-2p1-1-2p1---||
||o---------------------------------|----------------------------------o||
||----------------------------------|-----------------------------------||


   Verse
    E S S S S E S S S S E S S   S S E S S S S S S S S S S S S  4x
||----------------------------|--------------------------------||
||o---------------------------|-------------------------------o||
||--4-1-1-1-1-1-1-1-1-1-1-1-1-|-1-1-1-1-1-1-1-2p1-1-2p1-1-2p1--||
||o---------------------------|-------------------------------o||
||----------------------------|--------------------------------||


 Chorus
  $$
  E E E E E E E E   E E E E E E E E   E E E E E E E E   E E E E E S S S S S S
|-----------------|-----------------|-----------------|------------------------|
|-----------------|-----------------|-----------------|-----3------------------|
|-----------------|-----------------|-----------------|------------------------|
|-4-4-4-3-3-3-0-0-|-0-1-1-1-0-0-1-0-|-4-4-4-3-3-3-0-0-|-0-3---3-0-x-x-x-x-x-x--|
|-----------------|-----------------|-----------------|------------------------|


  E E E E E E E E   E E E E E E E E
|-----------------|-----------------|
|-----------------|-----------------|
|-----------------|-----------------|
|-4-4-4-3-3-3-0-0-|-0-1-1-1-0-0-1-0-|
|-----------------|-----------------|


                              D.S. al Coda
                              D.S. al Coda
                              D.S. al Coda
  E E E E E E E E   E E E E E S S S S S S
|-----------------|------------------------||
|-4-4-4-3-3-3-----|-----3------------------||
|-------------5-5-|-5----------------------||
|-----------------|---3---3-1-x-x-x-x-x-x--||
|-----------------|------------------------||


   Guitar Solo
    &
    H    H      +E  Q.   Q.   E   H    H
||------------|-----------------|-----------|
||o-----------|-----------------|-----------|
||------------|-----------------|-----------|
||o-3----4----|-(4)-4----5----6-|-3----4----|
||------------|-----------------|-----------|


 1.                 2.
  +E  Q.   H         E  Q.   E E E E
|----------------||--------------------||
|---------------o||--------------------||
|----------------||--------------------||
|-(4)-4----5----o||-(4)-4----5---------||
|----------------||------------3-3-3---||


   Bridge
    H    H      +E  Q.   Q.   E   H    H
||------------|-----------------|-----------|
||o-----------|-----------------|-----------|
||------------|-----------------|-----------|
||o-3----4----|-(4)-4----5----6-|-3----4----|
||------------|-----------------|-----------|


 1.                 2.
  +E  Q.   H         E  Q.   E E E E
|----------------||--------------------|
|---------------o||--------------------|
|----------------||--------------------|
|-(4)-4----5----o||-(4)-4----5---------|
|----------------||------------3-3-3---|


                        1.                      2.
                                                D.S.S. al Dbl. Coda
   6/4
    H    H    +E  Q  E   H    H    +E  Q.        H    H    +E  E E E
||---------------------|---------------------||----------------------||
||o--------------------|--------------------o||----------------------||
||---------------------|---------------------||----------------------||
||o-3----4----(4)-5--6-|-3----4----(4)-5----o||--3----4----(4)-------||
||---------------------|---------------------||----------------3-3-3-||


   Outro
    &&
   4/4
    S S S S S S S S S S S S S S S S   S S S S S S S S S S S S S S S S  3x
||----------------------------------|----------------------------------||
||o---------------------------------|---------------------------------o||
||--4p1-1-1-1-1-2p1-1-1-1-1-2p1-1-1-|-1-1-4p1-1-1-1-1-2p1-1-2p1-1-2p1--||
||o---------------------------------|---------------------------------o||
||----------------------------------|----------------------------------||


  S S S S S S S S S S S S S S S S   S S S S S S S S S S S S e E
|---------------------------------|------------------------------*|
|---------------------------------|------------------------------*|
|-4p1-1-1-1-1-2p1-1-1-1-1-2p1-1-1-|-1-1-4p1-1-1-1-1-2p1-1-1-1----*|
|---------------------------------|------------------------------*|
|---------------------------------|------------------------------*|
Suggest correction
Give kudos to tab author, rate the tab!
1 2 3 4 5
comments
print report bad tab
guest
You may want to rate the tab now too:
select rating
Wanna post a correction for this tab? Suggest correction