Oops, an error
Loading. Please wait.

Avarice Tab

version 3
version 3

Whole song

Interactive

5,685 views 1 this week
5 commentsread comments
1 2 3 4 5
accurate
x 7
add to favorites
launch autoscroll
font size
0
reset
how to read this tab
guitar tuner
Autoscroll
slow
fast
+/-
esc
set tempo
stop
Help us to improve Ultimate-Guitar.com Take our survey!
×
Author
Difficulty
Tuning
intermediate
C G C F A D
Big help from Operator(CA) on the solo, little adjustments I made, here you go, enjoy!


h=hammer on
p=pull off
b=bend
~=vibrato
*=harmonic
/or\=slide
P.M.=palm mute

Avarice
Drop C

Intro:Play four times, bottom play four aswell.
D-------------------------------------------------|
A-------------------------------------------------|
F-------------------------------------------------|
C-------------------------------------------------|
G-5p22222223p222222223p222222225p222223p223p223p2-
C-------------------------------------------------

D-----------------------------------------------------------|
A-----------------------------------------------------------|
F-----------------------------------------------------------|
C-12p99999-10p999999-10p9999999-12p999999-10p99-10p99-10p99-|
G-12p99999-10p999999-10p9999999-12p999999-10p99-10p99-10p99-|
C-12p99999-10p999999-10p9999999-12p999999-10p99-10p99-10p99-|

Verse:Play the top only twice.
D------------------------------------|
A------------------------------------|
F------------------------------------|
C------------------------------------|
G-9-9-9--999--999-9-9-10p9-10p9-10p9-|
C-9-9-9--999--999-9-9-10p9-10p9-10p9-|
P.M....  ...  ... . . .. . .. . .. .

D---------------------------|
A---------------------------|
F---------------------------|
C-12-9-9--999--999--999-999-|
G-12-9-9--999--999--999-999-|
C-12-9-9--999--999--999-999-|


Chorus
D---------------------------------------|
A---------------------------------------|
F---------------------------------------|
C-7--6--3--4-6--7--6--3--4--6-0-0-0-0-0-|
G-7--6--3--4-4--7--6--3--4--6-0-0-0-0-0-|
C-7--6--3--4-4--7--6--3--4--6-0-0-0-0-0-|
P.M.                          .........

Solo
D--------------------------------------------------------------------------|
A----------13-14-13----------13-14-13----------13-14-13----------13-14-13--|
F-14-13-14----------14-13-14----------14-13-14----------14-13-14-----------|
C--------------------------------------------------------------------------|
G--------------------------------------------------------------------------|
C--------------------------------------------------------------------------|

D--/14--12-----------------------------------------------|
A----------14-13-12b---11~12~----------------------------|
F----------------------------11~-9-----------------------|
C----------------------------------9b--8--9-9b--8--------|
G---------------------------------------------------9~~--|
C--------------------------------------------------------|

D-------------------------------------12-----12-14~~--|
A--------10-------12-------10------12----14-----------|
F--10-11----10-11----10-11----10-11-------------------|
C-----------------------------------------------------|
G-----------------------------------------------------|
C-----------------------------------------------------|


Tabbed by irishmatt1992, leave a comment for corrections or suggestions.
Suggest correction
What's this?
You can suggest a correction to this tab. Community and Mods will review your correction and vote to approve or reject it.
comments
print report bad tab
5 comments total. Showing first comments.
0 reply
dark_falco3000 737 wrote on September 20 2006, 08:02 am

Here's a comment: You just got all the tabs that other people wrote then put them into this one tab and added some extra bits. The intro, chorus and solo are all exactly the same as in the other tabs. If you can't make your own tabs, don't write any at all.

0 reply
badguitarist13 178 wrote on October 31 2006, 07:54 pm

thank you thank you thank you!!!

0 reply
Metalsmack355 1,512 wrote on September 7 2007, 05:21 pm

The Chorus is played like this...

|------------------------------|
|------------------------------|
|------------------------------|
|5-5-5-4-4-4-1-1-1-2-2-2-4-2-0-|
|5-5-5-4-4-4-1-1-1-2-2-2-2-2-0-|
|5-5-5-4-4-4-1-1-1-2-2-2-2-2-0-|

|------------------------------------|
|------------------------------------|
|------------------------------------|
|5-5-5-4-4-4-1-1-1-2-2-2-------------|
|5-5-5-4-4-4-1-1-1-2-2-2-0-0-0-0-0-0-|
|5-5-5-4-4-4-1-1-1-2-2-2-0-0-0-0-0-0-|
PM---------|

play that twice. That's sounds right to me... But thatnx for evertying else AWESUM!!

guest
You may want to rate the tab now too:
select rating
Please do not post tabs as comments. Select "correction" instead!