Oops, an error
Loading. Please wait.

Awaken Tab

version 1
version 1

Intro

Whole song

Interactive

1,406 views 3 this week
no commentswrite comment
1 2 3 4 5
please rate
add to favorites
launch autoscroll
font size
0
reset
how to read this tab
guitar tuner
Autoscroll
slow
fast
+/-
esc
set tempo
stop
Help us to improve Ultimate-Guitar.com Take our survey!
×
Band:DISTURBED
Title:Awaken
Tuning:Db Ab Db Gb Bb Eb
(Dropped D Tuning)

H = Harmonic
X = Palm Mute

It might not be the best tab in the world but I think it's pretty close.
It's the intro to the song "Awaken" on their new cd called BELIEVE 
If you don't have the cd I strongly suggest you get it cause you don't
know what your missing. Enjoy
                                      H
Eb----------------------------------------------------------
Bb----------------------------------------------------------
Gb-------9-------------------9--------5--------9------------
Db--22---X---2222---5---22---X---2222-----22---X---2222---5-
Ab--22---7---2222---5---22---7---2222-----22---7---2222---5-
Db--22-------2222---5---22-------2222-----22-------2222---5-

                                                             H
Eb-----------------------------------------------------------5-
Bb-----------------------------------------------------------5-
Gb-------9----------------------9-------------------9----------
Db--22---X---2222--X222X---22---X---2222---5---22---X---2222---
Ab--22---7---2222--X222X---22---7---2222---5---22---7---2222---
Db--22-------2222--X222X---22-------2222---5---22-------2222---


Eb--------------------------------------
Bb--------------------------------------
Gb-------9--------------9---------------
Db--22---X---2222---5---X---2222--X222X-
Ab--22---7---2222---5---7---2222--X222X-
Db--22-------2222---5-------2222--X222X-

That's it but I'm sure I'm it's not 100% perfect but I'd have
to say it's around 95% but if you think it's not right then
correct it but anyway I hope you enjoy it. Later
Suggest correction
Give kudos to tab author, rate the tab!
1 2 3 4 5
comments
print report bad tab
guest
You may want to rate the tab now too:
select rating
Wanna post a correction for this tab? Suggest correction