Oops, an error
Loading. Please wait.

Awaken Bass Tab

version 2
version 2

Whole song

Interactive

886 views 1 this week
no commentswrite comment
1 2 3 4 5
3 more votes to show rating
add to favorites
launch autoscroll
font size
0
reset
guitar tuner
Autoscroll
slow
fast
+/-
esc
set tempo
stop
Help us to improve Ultimate-Guitar.com Take our survey!
×
Author
Difficulty
novice
Disturbed
Awaken

I don't know the name of this tuning and even though
it looks like i made a mistake and it should be D#
its not it really is Db. Oh yeah and just because
it has 5 lines doesn't mean it uses the B string.

Intro  (0:00)
Gb--------------------------------------------------|
Db--------------------------------------------------|
Ab-----8-7---------------------8-7------------------|
Db-3-2------3-2--3-2-6-5-5--3-2------3-2--6-5-5-5---|
Bb--------------------------------------------------|

Gb----------------------------------------------------|
Db----------------------------------------------------|
Ab-----8-7---------------------8-7--------------------|
Db-3-2------3-2--3-2-6-5-5--3-2------3-2-5-5--X-X-X---|
Bb----------------------------------------------------|

Gb--------------------------------------------------|
Db--------------------------------------------------|
Ab-----8-7---------------------8-7------------------|
Db-3-2------3-2--3-2-6-5-5--3-2------3-2--6-5-5-5---|
Bb--------------------------------------------------|

Gb----------------------------------------------------|
Db----------------------------------------------------|
Ab-----8-7---------------------8-7--------------------|
Db-3-2------3-2--3-2-6-5-5--3-2------3-2-5-5--X-X-X---|
Bb----------------------------------------------------|

Verse  (0:19)
Stripped of life...
Gb------------------------------|
Db------------------------  X16-|
Ab-----8-7----------------------|
Db-3-2------3-2--2-2-5-5--------|
Bb------------------------------|

Chorus  (0:58)
Awaken...                 Feed on your nothing...
Gb-----------------------------------------------------|
Db-----------------------------------------------------|
Ab-----------------------------------------------------|
Db-2-0-3---2-0-3---2-0-3--2-0-0-0-0--0-0-0-0-0--0-0-0--|
Bb-----------------------------------------------------|

Gb------------------------------------------------------|
Db------------------------------------------------------|
Ab------------------------------------------------------|
Db-2-0-3---2-0-3---2-0-3--2--0-0-0-0--0-0-0-0-0--0-0-0--|
Bb------------------------------------------------------|

(1:17)
Gb--------------------------------------------------------|
Db--------------------------------------------------------|
Ab--------------------------------------------------------|
Db-3-2-X-X-X-3-2-X-X-X-X-3-2---3-2-X-X-X-3-2-X-X-X-X-3-2--|
Bb--------------------------------------------------------|

Gb------------------------------------------------|
Db------------------------------------------------|
Ab------------------------------------------------|
Db-3-2-X-X-X-3-2-X-X-X-X-3-2--6/5--5-5--5--5-5-5--|
Bb------------------------------------------------|

Gb--------------------------------------------------------|
Db--------------------------------------------------------|
Ab--------------------------------------------------------|
Db-3-2-X-X-X-3-2-X-X-X-X-3-2---3-2-X-X-X-3-2-X-X-X-X-3-2--|
Bb--------------------------------------------------------|

Gb------------------------------------------------|
Db------------------------------------------------|
Ab------------------------------------------------|
Db-3-2-X-X-X-3-2-X-X-X-X-3-2--6/5--5-5--5--5-5-5--|
Bb------------------------------------------------|

Interlude  (1:36)
Gb---------------------------|
Db---------------------------|  X4
Ab-----8-7-------------------|
Db-3-2------3-2--2-2-5-5-----|
Bb---------------------------|

Verse  (1:46)
Stripped of life...
Gb--------------------------------------------|
Db--------------------------------------------|  X6
Ab-----8-7--------------8-7-------------------|
Db-3-2------3-2-2-2--3-2------3-2-5-5-5-5-----|
Bb--------------------------------------------|

(2:15)
With the way you tired...
Gb--------------------------------------------------|
Db--------------------------------------------------|
Ab-----8-7---------------------8-7------------------|
Db-3-2------3-2-3-2-/6-5-5--3-2------3-2-/6-5-5-5---|
Bb--------------------------------------------------|

Gb---------------------------------------|
Db---------------------------------------|
Ab-----8-7-------------------------------|
Db-3-2------3-2-3-2/6-5-5--3-2--3-2--5---|
Bb---------------------------------------|

Chorus  (2:25)
Awaken...
Gb-----------------------------------------------------|
Db-----------------------------------------------------|
Ab-----------------------------------------------------|
Db-2-0-3---2-0-3---2-0-3--2-0-0-0-0--0-0-0-0-0--0-0-0--|
Bb-----------------------------------------------------|

Gb------------------------------------------------------|
Db------------------------------------------------------|
Ab------------------------------------------------------|
Db-2-0-3---2-0-3---2-0-3--2--0-0-0-0--0-0-0-0-0--0-0-0--|
Bb------------------------------------------------------|

(2:45)
Gb--------------------------------------------------------|
Db--------------------------------------------------------|
Ab--------------------------------------------------------|
Db-3-2-X-X-X-3-2-X-X-X-X-3-2---3-2-X-X-X-3-2-X-X-X-X-3-2--|
Bb--------------------------------------------------------|

Gb------------------------------------------------|
Db------------------------------------------------|
Ab------------------------------------------------|
Db-3-2-X-X-X-3-2-X-X-X-X-3-2--6/5--5-5--5--5-5-5--|
Bb------------------------------------------------|

Gb--------------------------------------------------------|
Db--------------------------------------------------------|
Ab--------------------------------------------------------|
Db-3-2-X-X-X-3-2-X-X-X-X-3-2---3-2-X-X-X-3-2-X-X-X-X-3-2--|
Bb--------------------------------------------------------|

Gb----------------------------------------------------|
Db----------------------------------------------------|
Ab----------------------------------------------------|
Db-3-2-X-X-X-3-2-X-X-X-X-3-2--6/5--5-5--5--5-5-5-2~~--|
Bb----------------------------------------------------|

Bridge  (3:09)
There isn't a thing...
Gb-------------------------2---------4-----------|
Db-----------------------------------------------|
Ab------3-3-------2-3-3--0----0-0--2----3-2-2----|
Db-2-2-------2-2------------------------------4--|
Bb-----------------------------------------------|

Gb-------------------------2-----------4------------2--------|
Db------------------------------------------------2----2-----|
Ab------3-3-------2-3-3--0----0-0--2-2----2-2-2-0---------0--|
Db-2-2-------2-2---------------------------------------------|
Bb-----------------------------------------------------------|

Gb-----------------------------------|
Db-----------------------------------|
Ab-2-2-2-2-2-2-2-2-2-2-2-2-22222222--|
Db-----------------------------------|
Bb-----------------------------------|

Chorus  (3:45)
Awaken...
Gb-----------------------------------------------------|
Db-----------------------------------------------------|
Ab-----------------------------------------------------|
Db-2-0-3---2-0-3---2-0-3--2-0-0-0-0--0-0-0-0-0--0-0-0--|
Bb-----------------------------------------------------|

Gb-----------------------------------------------------|
Db-----------------------------------------------------|
Ab-----------------------------------------------------|
Db-2-0-3---2-0-3---2-0-3--2-0-0-0-0--0-0-0-0-0--0-0-0--|
Bb-----------------------------------------------------|

Outro  (4:04)  played fast
Gb----------------------------------|
Db----------------------------------|  X7
Ab----------------------------------|
Db-3-2-2-2-2-2-3-2-2-2-2-2-3-2-2-2--|
Bb----------------------------------|

Gb------------------------------|
Db------------------------------|
Ab------------------------------|
Db-3-2-2-2-2-2-3-2-2-2-2-2-3-2--|
Bb------------------------------|
Suggest correction
Give kudos to tab author, rate the tab!
1 2 3 4 5
comments
print report bad tab
guest
You may want to rate the tab now too:
select rating
Wanna post a correction for this tab? Suggest correction